Thyrfing Tabs

Digerdoden

1 versions

TAB

            Digerdoden Tab by Thyrfing


|
Tuning= e-------
        B-------
        G-------
        D-------
        A-------
        D-------



        THYRFING-DIGERDÖDEN
        FROM THE ALBUM VANSINNESVISOR


        TABBED BY: NIKLAS MARKLUND

        I WONDER WHY I WRITE THIS ON ENGLISH


                         
e|----------------------|e
B|----------------------|B
G|----------------------|G
D|----------------------|D
A|--3ring out--1---0----|A
D|--3----------1---0----|D

THIS IS THE INTRO AND VERS RIFF
THERE´S A LOT OF STOPS AND FILLS BUT THAT I DON´T HAVE TO WRITE DOWN.
BASS PLAY´S THE SAME.
   
e|-----------------------------------------------      
B|-----------------------------------------------      
G|-----------------------------------------------     
D|--10-/-7--7--7--10-10-10-/-7--7--7--12-12-12-/-      
A|--8-/--5--5--5--8--8--8--/-5--5--5--10-10-10-/-      
D|-----------------------------------------------      
    



     e|------------------------------------------------------------|e
     B|------------------------------------------------------------|B
     G|------------------------------------------------------------|G
     D|-7--7--7--12-12-12--7--7--7--5-/-7--7--7--7-/--5r-2-2-10-7--|D
     A|-5--5--5--10-10-10--5--5--5--3-/-5--5--5--5-/--3r-0-0-8--5--|A
     D|------------------------------------------------------------|D









THEY PLAY THIS BETWEEN THE VERSES
THE BASS PLAYS THE SAME.

THIS IS THE HEAVY PART
e|---------------------------------------------------------|e
B|---------------------------------------------------------|B
G|---------------------------------------------------------|G
D|-------------------------------------7-7-7-7-7-7-6---7---|D  GUITAR 1
A|-0-0---0-0---0-0---0-0---0-0---0-0---5-5-5-5-5-5-4---5---|A
D|-0-0---0-0---0-0---0-0---0-0---0-0-----------------------|D


e|---------------------------------------------------------------|e
B|------------------------------------------------------9-(10)---|B
G|-----------------------------------------------7h9h10----------|G
D|----------------------------------------7h9h10-----------------|D  GUITAR 2
A|-0-0---0-0---0-0---0-0---0-0---0-0-----------------------------|A
D|-0-0---0-0---0-0---0-0---0-0---0-0-----------------------------|D


e|-------------------------------------------------|
B|-------------------------------------------------|
G|-------------------------------------------------|
D|-------------------------------------3-3-5-7-7---|   SECOND ENDING
A|-0-0---0-0---0-0---0-0---0-0---0-0---1-1-3-5-5---|
D|-0-0---0-0---0-0---0-0---0-0---0-0---------------|

CHORUS
e|-------------------------------------------|
B|-------------------------------------------|
G|-------------------------------------------|
D|--7---5---2---7---5---7---5---2---7---3----|
A|--5---3---0---5---3---5---3---0---5---1----|
D|-------------------------------------------|

LYRICS

HÄR VANDRAR EN PESTSLAGEN HOP
HÄR SKÅDAS KRIGETS HÄRJNINGAR
HÄR VILAR EN LUKT AV DÖD
HÄR FRODAS DOMEDAGENS GISSEL

THATS IT YOU JUST HAVE TO LISTEN HOW THEY PLAY IT

BY:NIKLAS mARKLUND infinite_nicke@ironmaiden.com    

Added On December 12th, 2013

SHARE

Comments

blog comments powered by Disqus

ADVERTISEMENT