Tim Skold Tabs

Believe

1 versions

TAB

            Believe Tab by Tim Skold


Artist: Tim Skold
Album: Dead God Promo
Song: Believe
Tuning: Standard
Tabber: Chris (karacho@hotmail.co.uk)

Intro
e|---------------------------------------------------------------|
B|---------------------------------------------------------------|
G|---------------------------------------------------------------|
D|---10---10---12---10---7---------------------------------------|
A|---8----8----10---8----5---------------------------------------|
E|---------------------------------------------------------------| (x2)

e|---------------------------------------------------------------|
B|---------------------------------------------------------------|
G|---------------------------------------------------------------|
D|---10---10---12---14---12------12---14---12------12---10---7---|
A|---8----8----10---12---10------10---12---10------10---8----5---|
E|---------------------------------------------------------------|

Verse
e|---------------------------------------------------------------|
B|---------------------------------------------------------------|
G|---------------------------------------------------------------|
D|---10---10---12---10---7---------------------------------------|
A|---8----8----10---8----5---------------------------------------|
E|---------------------------------------------------------------|(x2)

Chorus
e|---------------------------------------------------------------|
B|---------------------------------------------------------------|
G|---7---7-------------------5-----------------------------------|
D|---7---7-8---8-5---5-8---8-5-----------------------------------|
A|---5---5-8---8-5---5-8---8-3-----------------------------------|
E|---------6---6-3---3-6---6-------------------------------------|

Just listen out for the timing and you should have it learnt in no time.
This is only the approximate tab, there is some muted strumming in the
chorus that you can add in if you want (just listen and work out where it goes) etc...!    

Added On December 12th, 2013

SHARE

Comments

blog comments powered by Disqus

ADVERTISEMENT