Tim Skold Tabs

Dont Pray For Me

1 versions

TAB

            Song: Don't Pray For Me
Artist: Skold
Album: The Golden Age of Grotesqe 2: Black Album (Botleg)

Tuning: Standard

Create by (s)AINT
_________________________________________________

 Main Riff/Chorus/Outro (Distortion)
e------------------------------------------|
B------------------------------------------|
G-8---------5-8-5--------------------------|
D-8---------5-8-5--------------------------|
A-6(x4/fast)3-6-3--------------------------|
E------------------------------------------|

 Bass Verse/Pre Chorus
e------------------------------------------|
B------------------------------------------|
G------------------------------------------|
D------------------------------------------|
A------------------------------------------|
E-4(x16)-2(x4)-0(x4)-4(x8)-----------------|

 Verse (Guitar in Part 2 of Verse)
e------------------------------------------|
B------------------------------------------|
G------------------------------------------|
D-6----6/4--2---2/6---6-6------------------|
A-6----6/4--2---2/6---6-6------------------|
E-4----4/2--0---0/4---4-4(x6)--------------|

 Pre Chorus (Guitar With Vocal)
e------------------------------------------|
B------------------------------------------|
G-1----------------------------------------|
D----4--2-1-------2-1----------------------|
A------------2--4------6--4--1-2-1---------|
E----------------------------------4-------|

 Chorus (Guitar 2)
e------------------------------------------|
B------------------------------------------|
G------------------------------------------|
D-5------7-----8-----7-5-------------------|
A-5------7-----8-----7-5-------------------|
E-3(x16)-5(x4)-6(x3)-8-3-------------------|


Try!    

Added On December 16th, 2013

SHARE

Comments

blog comments powered by Disqus

ADVERTISEMENT