Tokio Hotel Tabs

Wir Schlieen Uns Ein

1 versions

TAB

            -------------------------------------------------------------------------------
                    Wir schliessen uns ein – Tokio Hotel
-------------------------------------------------------------------------------
Tabbed by: Cynthia Figueroa
Email: Mytokioromancee@Hotmail.com

Tuning: Standard

I only tabbed the lead guitar of this song so if you want the Rhythm guitar send me a
I chose to tab this song because no one has the complete song which is pretty pointless,
pretty sure it’s accurate. Tokio Hotel is a great band so please no bashing in the 
Pretty soon I’ll post my new tabs including Spring Nicht (Live in Oberhausen), Schrei
Live DVD), Totgeliebt (Live in Oberhausen) and possibly Leb die Sekunde (Live in 
Send me a message with requests, Thanks!


Intro:
“Wir sehen vorm Fenster….”
E|---------------------------------------------------------------------------|
B|---------------------------------------------------------------------------|
G|---------------------------------------------------------------------------|  x8
D|--------5-5-5-5-0-0-0-0----------------------------------------------------|
A|6-6-6-6--------------------------------------------------------------------|
E|------------------------6-6-6-6-6------------------------------------------|

Pre-Chorus:
“Es ist gerade so perfekt…”
E|---------------------------------------------------------------------------|
B|---------------------------------------------------------------------------|
G|---------------------------------------------------------------------------|  x1
D|---------------------------------------------------------------------------|
A|---------------------------------------------------------------------------|
E|2-2-2-1-0------------------------------------------------------------------|

Chorus:
“Wir schließen uns ein….”
E|---------------------------------------------------------------------------|
B|---------------------------------------------------------------------------|
G|---------------------------------------------------------------------------|
D|---------------------------------------------------------------------------|  x2
A|---------------------------------------------------------------------------|
E|1-1-1-1-1-4-3-1-2-2--2-2-2-1-1-1-1-1---------------------------------------|

E|---------------------------------------------------------------------------|
B|---------------------------------------------------------------------------|
G|---------------------------------------------------------------------------|  x1
D|1-1--1-1-1-------------1--1-1-1--------------------------------------------|
A|------1-2-3-3-3--3-3-3-------2-4--1-1-1--1-1-1-1---------------------------|
E|---------------------------------------------------------------------------|

Then:
Intro: x8
Pre-chorus: x1
Chorus: x1
Pre-Chorus: x1

Solo (Figure out slides, etc.):

E|--------------------14-----14-16-14----------------------------------14-16-18---|
B|-11-11-11-9---11-11-----16----------16-14-16-14-16-14-16-14-16-14-16------------|
G|------------11------------------------------------------------------------------|
D|--------------------------------------------------------------------------------|
A|--------------------------------------------------------------------------------|
E|--------------------------------------------------------------------------------|


Then ->
Pre-Chorus: x1
Chorus: x1


| /  slide up
| \  slide down
| h  hammer-on
| p  pull-off
| ~  vibrato
| +  harmonic
| x  Mute note    

Added On December 16th, 2013

SHARE

Comments

blog comments powered by Disqus

ADVERTISEMENT