Tom Petty Tabs

I Wont Back Down

6 versions

TAB

            I Wont Back Down Tab by Tom Petty


NOte:use a slide to do intro and solo

Intro:(don't forget the slide! and let ring)
|------------------------------------------------------------|
|---12~~~~~--------------------------------------------------|
|-----------14\12--------------------------------------------|
|------------------------------------------------------------|
|------------------------------------------------------------|
|------------------------------------------------------------|

Verse:(rhythm guitar)(P.M.)
     E5	     D5	     G5                   
|---------------------------------------|
|---------------------------------------|
|----4-4-4-4-2-2-2-2--------------------|All:x3
|----2-2-2-2-0-0-0-0--------------------|
|--------------------5-5-5-5--5-5-5-5---|
|--------------------3-3-3-3--3-3-3-3---|

Note:on the thrid time Change the G5 To C5 (up a string)

Chours:(not P.M.) 
        C       D    C5
|---------------2---------------------------------------------|
|---0---1---0---3------------------------0--------------------|
|---0---0---0---2------------------------0--------------------|
|---0---2---0---------5-5-5-5--5-5-5-5---0--7-7-7-------------|
|---------------------3-3-3-3--3-3-3-3------5-5-5-------------|
|-------------------------------------------------------------|
    I won't Back     Hey....            Baby....

Solo:(don't forget the slide! and let ring throughout)
|--12~~~~~-----------|--------------|-----------------|--------------|
|--------------------|--------------|------15---------|----3---------|
|----------14\12~~~~-|--------------|--/16-----16~~~~-|-/4---4\2p0---|
|--------------------|--12\9/14/17--|-----------------|--------------|
|--------------------|--------------|-----------------|--------------|
|--------------------|--------------|-----------------|------------3-|
				      ^In this measure it is modified
				From how he plays it so that you don't
				have to change you tuning everytime you
				play this! Also so you know in this measure
				You are going to turn the slide to about a
				35 degree angle to play it as fast as he does.

If you have any questions e-mail me: herge_rough_draft@hotmail.com    

Added On December 12th, 2013

SHARE

Comments

blog comments powered by Disqus