Trans-siberian Orchestra Tabs

Midnight

1 versions

TAB

            Midnight Tab by Trans-siberian Orchestra


"Midnight" #2
Standard Tuning
(.53)
E----------------------------------------------------|
B----------------------------------------------------|
G----------------------------------------------------|
D----------------------------------------------------|
A-333-3-333-3-444-4-------333-3-333-3-444-4-666-4(6)-|
E-------------------666-6----------------------------|
All Palm Muted
Repeat 3 times
(1.29)
E----------------------------------------------------|
B----------------------------------------------------|
G----------------------------------------------------|
D----------------------------------------------------|
A-333-3-333-3-444-4-------333-3-333-3-444-4-666-4(6)-|
E-------------------666-6----------------------------|
All Palm Muted
Repeat twice
(1.50)
E---------------------------|
B---------------------------|
G---------------------------|
D-3-6-5-3-5--3-----------|
A-3-----3-------3-6-4-3-4-6-|
E-----------------6-4-3-4-6-|
                *********
Repeat 3 times
Fades in to "Fate"

=Artificial Harmonic

-End    

Added On December 12th, 2013

SHARE

Comments

blog comments powered by Disqus

ADVERTISEMENT