Travis Tabs

Peace The Fuck Out

1 versions

TAB

            Peace The Fuck Out Chords by Travis

----------------------------------------------------------------------- 
Travis - Peace the Fuck Out
-----------------------------------------------------------------------
Tabbed by: Pascal M Frenette
Email: ludohvik@msn.com
Tuning : EADGBe (Standard)

  Riff (all 3 bars for intro)
e|---------------------------------|   
b|---------------------------------| 
g|-5-2-4-2-/5-2-4---5-2-4-2-/5-2-4-| 
d|-it can also be (10-7-9-7-10-7-9)|
a|--------------or—(3-0-2-0-/3-0-2)|
e|---------------------------------|   

e|----------------------------------| 
b|----------------------------------| 
g|-5-2-4-2-/5-2-4---5-22-4-2-/5-2-4-| 
d|----------------------------------|

e|------------------------------------------| 
b|------------------------------------------| 
g|-5-2-4---/5-2-4---5-22-4-22-/5-2-4-/5-2-0-|
d|------------------------------------------|

  Fill 1           Fill 2
e|----------------|-------------------------|  
b|----------------|-------------------------|  
g|----------------|-4-4-44-0-1-2-2-22-222---|
d|----------------|------------x-x-xx-xxx---|
a|-3~~-2-0-2~-----|------------0-0-00-000---|  
e|----------------|-------------------------|  

  Solo
e|---------------------------------------------| 
b|---------------------------------------------| 
g|-------------------------12(tremolo picking)-|
d|-------------6~~/7~~-(feedback)--------------|
a|-3~~-2-0-2~~---------------------------------| 
e|-------------4~~/5~~/11~~--------------------| 


(Riff)
Now I don't know that your tie is straight
Your words are crooked and you're gonna pay
In ten years time they're gonna say
That this was the momment when you threw it away

         C
C
e |---|---|-x-|---|---|
B |-x-|---|---|---|---|
G |---|---|---|---|---|
D |---|-x-|---|---|---|
A |---|---|-x-|---|---|
E |---|---|---|---|---|
E
E
e |---|---|---|---|---|
B |---|---|---|---|---|
G |-x-|---|---|---|---|
D |---|-x-|---|---|---|
A |---|-x-|---|---|---|
E |---|---|---|---|---|
And it's all wrong, handbags at dawn A
A
e |---|---|---|---|---|
B |---|-x-|---|---|---|
G |---|-x-|---|---|---|
D |---|-x-|---|---|---|
A |---|---|---|---|---|
E |---|---|---|---|---|
(Riff) And turn the radio off to hear a song G5
G5
e |---|---|---|---|---|
B |---|---|---|---|---|
G |---|---|---|---|---|
D |---|---|---|---|-x-|
A |---|---|---|---|-x-|
E |---|---|-x-|---|---|
Oh please don't give up You have a voice, don't lose it You have a choice, so choose it You have a brain, so use it The time has come to Peace the fuck out (Fill 1) (Riff) Now I don't know what you're talking about There's too much shit pouring out of your mouth The time is up, the secret's out The truth's gonna catch you going south C
C
e |---|---|-x-|---|---|
B |-x-|---|---|---|---|
G |---|---|---|---|---|
D |---|-x-|---|---|---|
A |---|---|-x-|---|---|
E |---|---|---|---|---|
E
E
e |---|---|---|---|---|
B |---|---|---|---|---|
G |-x-|---|---|---|---|
D |---|-x-|---|---|---|
A |---|-x-|---|---|---|
E |---|---|---|---|---|
But it's all wrong, handbags at dawn A
A
e |---|---|---|---|---|
B |---|-x-|---|---|---|
G |---|-x-|---|---|---|
D |---|-x-|---|---|---|
A |---|---|---|---|---|
E |---|---|---|---|---|
(Riff) And turn the radio off to hear a song G5
G5
e |---|---|---|---|---|
B |---|---|---|---|---|
G |---|---|---|---|---|
D |---|---|---|---|-x-|
A |---|---|---|---|-x-|
E |---|---|-x-|---|---|
Oh please don't give up You have a voice, so use it (Solo) C
C
e |---|---|-x-|---|---|
B |-x-|---|---|---|---|
G |---|---|---|---|---|
D |---|-x-|---|---|---|
A |---|---|-x-|---|---|
E |---|---|---|---|---|
E
E
e |---|---|---|---|---|
B |---|---|---|---|---|
G |-x-|---|---|---|---|
D |---|-x-|---|---|---|
A |---|-x-|---|---|---|
E |---|---|---|---|---|
Yeah but it's all wrong, handbags at dawn A (Fill 2) And turn the radio off to hear a song G5
G5
e |---|---|---|---|---|
B |---|---|---|---|---|
G |---|---|---|---|---|
D |---|---|---|---|-x-|
A |---|---|---|---|-x-|
E |---|---|-x-|---|---|
Oh please don't give up You have a voice, don't lose it You have a choice, so choose it You have a brain, so use it The time has come to C
C
e |---|---|-x-|---|---|
B |-x-|---|---|---|---|
G |---|---|---|---|---|
D |---|-x-|---|---|---|
A |---|---|-x-|---|---|
E |---|---|---|---|---|
Peace the fuck out Crowd: peace the fuck out (repeat) A
A
e |---|---|---|---|---|
B |---|-x-|---|---|---|
G |---|-x-|---|---|---|
D |---|-x-|---|---|---|
A |---|---|---|---|---|
E |---|---|---|---|---|
: x02220 577xxx C
C
e |---|---|-x-|---|---|
B |-x-|---|---|---|---|
G |---|---|---|---|---|
D |---|-x-|---|---|---|
A |---|---|-x-|---|---|
E |---|---|---|---|---|
: x32010 x355xx E
E
e |---|---|---|---|---|
B |---|---|---|---|---|
G |-x-|---|---|---|---|
D |---|-x-|---|---|---|
A |---|-x-|---|---|---|
E |---|---|---|---|---|
: 022100 022xxx G5
G5
e |---|---|---|---|---|
B |---|---|---|---|---|
G |---|---|---|---|---|
D |---|---|---|---|-x-|
A |---|---|---|---|-x-|
E |---|---|-x-|---|---|
: x101212xx

Added On December 12th, 2013

SHARE

Comments

blog comments powered by Disqus

ADVERTISEMENT