Tyler Ward Tabs

When I Look At You

1 versions

TAB

            This is my first tab ever!
Hope it's perfect.

Tyler Ward Ft. Julia Sheer - When I Look At You
Video: http://www.youtube.com/watch?v=idnvgIRdYhc
Tuning: Standard
Capo  : 2

Verse:
e|--0----0----0----0--|
A|--0----0----0----0--|
D|--6----1----4----2--|    2x
G|--6----2----4----2--|
B|--4----2----2----0--|
E|--x----0----x----x--|

Pre-Chorus:
e|--4----5----4----5----x-x--|
A|--4----5----4----5----x-x--|
B|--4----5----4----5----x-x--|
D|--5----4----5----4----x-x--|
G|--6----7----6----7----x-x--|
B|--6----7----6----7----x-x--|
E|--4----5----4----5----x-x--|

Chorus:
e|--0----0----0----0-----|
A|--0----0----0----0-----|
D|--1----4----6----2-----|    4x
G|--2----4----6----2-----|
B|--2----2----4----0-----|
E|--0----x----x----x-----|

Verse:
e|--0----0----0----0--|
A|--0----0----0----0--|
D|--6----1----4----2--|    2x
G|--6----2----4----2--|
B|--4----2----2----0--|
E|--x----0----x----x--|

Pre-Chorus:
e|--4----5----4----5----9---|
A|--4----5----4----5----9---|
D|--5----6----5----6----10--|
G|--6----7----6----7----11--|
B|--6----7----6----7----11--|
E|--4----5----4----5----9---|

Chorus:
e|--0----0----0----0--|
A|--0----0----0----0--|
D|--1----4----6----2--|    3x
G|--2----4----6----2--|
B|--2----2----4----0--|
E|--0----x----x----x--|

e|--0----0----0----0--|
A|--0----0----0----0--|
D|--1----4----6----7--|
G|--2----4----6----7--|
B|--2----2----4----5--|
E|--0----x----x----x--|

Bridge:
e|--------------------------------2----4----4----5----2----4----4----5--|
A|--------------------------------2----4----4----5----2----4----4----5--|
D|--------------------------------4----6----4----5----4----6----4----5--|
G|-----------------6--------------4----6----6----7----4----6----6----7--|
B|--6----7----9----4----6----7----2----4----6----7----2----4----6----7--|
E|--4----5----7---------4----5--------------4----5--------------4----5--|

e|--2--2--|
A|--2--2--|
D|--4--4--|
G|--4--4--|
B|--2--2--|
E|--------|

Chorus:
e|--0----0----0----0--|
A|--0----0----0----0--|
D|--1----4----6----2--|    2x
G|--2----4----6----2--|
B|--2----2----4----0--|
E|--0----x----x----x--|

e|--0--|
A|--0--|
D|--1--|
G|--2--|
B|--2--|
E|--0--|    

Added On December 16th, 2013

SHARE

Comments

blog comments powered by Disqus

ADVERTISEMENT