Unseen Tabs

Tradition

1 versions

TAB

            Tradition Tab by Unseen


-----------------------------------------------------------------
TRADITION - The Unseen
-----------------------------------------------------------------

Tabbed by: DumbKids
Album: So This Is Freedom?
Tuning: Standard

|Intro|

Guitar 1
e|-----------------------------------------------------|
B|-----------------------------------------------------|
G|----------------------4b5----------------------------|
D|-0-2-2--0-2-2--0-2-2-------0-2-2--0-2-2--0-2-2-------|
A|-----------------------------------------------3-2-0-|
E|-----------------------------------------------------|

Guitar 2
e|------------------------------------------------------|
B|------------------------------------------------------|
G|-9-9-9--7-6----------------9-9-9--7-6-----------------|
D|-9-9-9--7-6-9--7-7-7-10-10-9-9-9--7-6-9--7-7-7--10-10-|
A|-7-7-7--5-4-9--7-7-7-10-10-7-7-7--5-4-9--7-7-7--10-10-|
E|------------7--5-5-5--8--8------------7--5-5-5---8--8-|

|Verse|

Guitars 1 & 2
e|---------------------------|
B|---------------------------|
G|-9-9-9--7-6----------------|x8
D|-9-9-9--7-6-9--7-7-7-10-10-|
A|-7-7-7--5-4-9--7-7-7-10-10-|
E|------------7--5-5-5--8--8-|

|Chorus|

Guitars 1 & 2
e|--------------------------------|
B|--------------------------------|
G|---------6-6--6--2-2--2--4-4--4-|x4
D|-2-2--2--6-6--6--2-2--2--4-4--4-|
A|-2-2--2--4-4--4--0-0--0--2-2--2-|
E|-0-0--0-------------------------|

|Interlude|

Guitar 1
e|------------------------------------------------|
B|------------------------------------------------|
G|-9----------------------------------------------|
D|-9----------------------------------------------|
A|-7----------------------------------------------|
E|------------------------------------------------|

Guitar 2
e|------------------------------------------------|
B|------------------------------------------------|
G|-9-9-9-9-9-9-9-9-9-9--12-12-12-12-12--7-7-7-7-7-|
D|-9-9-9-9-9-9-9-9-9-9--12-12-12-12-12--7-7-7-7-7-|
A|-7-7-7-7-7-7-7-7-7-7--10-10-10-10-10--5-5-5-5-5-|
E|------------------------------------------------|
PM   . . . .   . . . .     .  .  .  .     . . . .

Guitar 1
e|------------------------------------------------|
B|------------------------------------------------|
G|------------------------------------------------|
D|------------------------------------------------|
A|------------------------------------------------|
E|----------------------10\\\\\\\\\\\\\\\\\\\\\\0-|
(slide finger down fretboard)

Guitar 2
e|------------------------------------------------|
B|------------------------------------------------|
G|-9-9-9-9-9-9-9-9-9-9--12-12-12-12-12--7-7-7-7-7-|
D|-9-9-9-9-9-9-9-9-9-9--12-12-12-12-12--7-7-7-7-7-|
A|-7-7-7-7-7-7-7-7-7-7--10-10-10-10-10--5-5-5-5-5-|
E|------------------------------------------------|
PM   . . . .   . . . .     .  .  .  .     . . . .

Guitars 1 & 2
e|------------------------------------|
B|------------------------------------|
G|-9-9-9-9-9-9-9-9--12-12--12--7-7--7-|x4
D|-9-9-9-9-9-9-9-9--12-12--12--7-7--7-|
A|-7-7-7-7-7-7-7-7--10-10--10--5-5--5-|
E|------------------------------------|

|Outro|


Guitars 1 & 2
e|-------------------------------|
B|-------------------------------|
G|-------------------------------|x3
D|-2-2--2--6-6--6--7-7--7-7--4-4-|
A|-2-2--2--6-6--6--7-7--7-7--4-4-|
E|-0-0--0--4-4--4--5-5--5-5--2-2-|

Guitars 1 & 2
e|-------------------------------------|
B|-------------------------------------|
G|-------------------------------------|
D|-2-2--2--6-6--6--7-7--7--7--6--4--2*-|
A|-2-2--2--6-6--6--7-7--7--7--6--4--2*-|
E|-0-0--0--4-4--4--5-5--5--5--4--2--0*-|

Guitar 1
e|-12----12-12-12-12-12-12-12-12*----|
B|-12----12-12-12-12-12-12-12-12*----|
G|-14b16*-------------------------9\-|
D|--------------------------------9\-|
A|--------------------------------7\-|
E|-----------------------------------|

Guitar 2
e|-----------------------------------|
B|-----------------------------------|
G|--------------------------------9\-|
D|-2-2-2-2-2-2-2-2-2*-------------9\-|
A|-2-2-2-2-2-2-2-2-2*-------------7\-|
E|-0-0-0-0-0-0-0-0-0*----------------|

| \ slide down |
| b bend       |
| . palm mute  |
| * hold note  |

|Order|

Intro x2
Verse
Chorus
Intro
Verse
Chorus
Interlude
Outro

|Lyrics|

You cling to an old world, of morals of a long past age
Why is it so hard to accept that things have changed?

You swallowed every word without any question
Followed all you heard for the sake of tradition

Say that your religious but your faith just ain't true
You salute a flag without asking what it did for you

You've been spoon fed your every thought
always did just as you're taught
You have a right to think that way
But I question your integrity
Always forcing your views on me
But they're just slogans it's plain to see

Fuck tradition    

Added On December 12th, 2013

SHARE

Comments

blog comments powered by Disqus

ADVERTISEMENT