Vern Gosdin Tabs

I Can Tell By The Way You Dance

1 versions

TAB

            this song is the same throughout.standard tuning

|----------------------------------------------------------|
|----------------------------------------------------------|
|----------------------------------------------------------|
|------0-0-0-----0-----------------------------------------|
|-0-2--------0-2---2---------------------------------------|
|---------------------0-3-3--5--x2-------------------------|

then the rest of the song
|------------------------------------------------------------|
|------------------------------------------------------------|
|------------------------------------------------------------|
|------0-0-0-----0------5-5--7-------------------------------|
|-0-2--------0-2---2----5-5--7-------------------------------|
|---------------------0-3-3--5-------------------------------|

and thats it injoy.    

Added On December 16th, 2013

SHARE

Comments

blog comments powered by Disqus

ADVERTISEMENT