Von Bondies Tabs

Not That Social

1 versions

TAB

            Not That Social Tab by Von Bondies


----------------------------------------------------------------------------
			     Not that social - The Von Bondies
----------------------------------------------------------------------------
Tabbed by: Cyril 


Tuning: EADGBe

This song is really easy!!

Verse : C#

Chorus : G# - A - B
	Not that social, just a good...


Bridge



e|--------------------------
B|--------------------------
G|--------------------------
D|------------8—-10-10—13---       x 2
A|---8-8--10----------------
E|--------------------------


e|--------------------------
B|--------------------------
G|--10-10--8-8---------8----
D|--------------10-10-------       x 2
A|--------------------------
E|---------------------------



Enjoy

Any comment: sanaza00@yahoo.fr    

Added On December 16th, 2013

SHARE

Comments

blog comments powered by Disqus

ADVERTISEMENT