Walt Disney Tabs

The Hundred Acre Wood

1 versions

TAB

            ----------------------------------------------------------------------------
                  The Hundred Acre Wood - Walt Disney
----------------------------------------------------------------------------
Tabbed by: Mr. Salt
Email: Noneyobusiness@no.com

Tuning: Standard

E|-------------------------------------------------------------------------|
B|-10-11-10-8----------------10-11-10-8---8-10-----11-10-8---8-13-10-------|
G|------------9-------------------------9------------------9---------10----|
D|--------------12-10-12-10---------------------12-------------------------|
A|-------------------------------------------------------------------------|
E|-------------------------------------------------------------------------|

E|-------------------------------------------------------------------------|
B|-------------------------------------------------------------------------|
G|-------9-10-9-------10---------------------------------------------------|
D|-10-12--------12-10------------------------------------------------------|
A|-------------------------------------------------------------------------|
E|-------------------------------------------------------------------------|    

Added On December 16th, 2013

SHARE

Comments

blog comments powered by Disqus

ADVERTISEMENT