Washya Tabs

Educate The Dead

1 versions

TAB

            ------------------------------------------------------------------------------
                       Educate The Dead - Washya
------------------------------------------------------------------------------
Tuning: Drop D (EBGDAD)
Intro
E|-----------------------------------------------------------------------|
B|-----------------------------------------------------------------------|
G|-3p0h3p0h3p0h3p0h3p0h3p0h3p0h3p0h3p0h3p0h3p0h3p0-----------------------|
D|-------------------------------------------------5p0h5p0h5p0h5p0h5p0---|
A|---------------------------------------------------------------------5-|
D|---------------------------------------------------------------------5-|

Main Riff
E|----------------------------------------------------------------------|
B|----------------------------------------------------------------------|
G|----------------------------------------------------------------------|
D|-----------------5-------------------77-------55-77-------55555\33333-|
A|-3---5---1---3---3---3---5---1---3---55-55-33-33-55-55-33-33333\11111-|
D|-3-0-5-0-1-0-3-0---0-3-0-5-0-1-0-3-0----55-33-------55-33-------------|
PM * * * * * * * *   * * * * * * * * *  

Verses
E|-----------------------------------|
B|-----------------------------------|
G|-----------------------------------|
D|-----------------------------------|
A|----3---5---1----1---3---5---5h6p5-|
D|-00---0---0---00---0---0---0-------|
PM **   *   *   **   *   *   *    

Added On December 16th, 2013

SHARE

Comments

blog comments powered by Disqus

ADVERTISEMENT