Waylon Jennings Tabs

Good Ol Boys

4 versions

TAB

            Good Ol Boys Tab by Waylon Jennings


************* GOOD OL' BOYS *************
This is the way it was played on the first season.

Intro-  Play fast pause where i have placed the spaces.
e------------------------------------------------------|
b------------------------------------------------------|
g------------------------------------------------------|
D-7----------------------------------------------------|
A-7----------------------------------------------------|
E-5-0-2-5-0-7-5-0-2/5-----5-2-5-5/7---5-0-2-5----0-7-5-|

Strum each chord 4 times then pick notes.

  A       D      G
e-0-------2------3-----|
b-2-------3---3--0-----|
g-2---2---2--2---0-----|
d-2--4----0-0----0---0-|
a-0-0-----x------2--2--|
e-x-------x------3-3---|

Intro: A A D D
Verse 1  D D G G D A D D
Verse 2  D D G G D A D D
Bridge: A A A A A A D D
Verse 3 D D G G D A D D    

Added On December 16th, 2013

SHARE

Comments

blog comments powered by Disqus

VERSIONS

ADVERTISEMENT