We Are Scientists Tabs

Lets See It

2 versions

TAB

            Track Name: Let's See It
Artist: We Are Scientists
Album: Brain Thurst Mastery
Year: 2008
Tabbed By: Andrew Carr

After battering out the new album, i can honestly say this is the best song off it. 
old skool WAS.


Main Riff/Verse
e|-------------------------------------------------------------------------------|
B|-------------------------------------------------------------------------------|
G|----------7--------------------------7-----------------------------------------|
D|-----7h9----9-7-9-5-555-7-7-7----7h9---9-7-9---------4-5-4---------------------|
A|-7----------------------------5---------------3-333----------------------------|
E|-------------------------------------------------------------------------------|


Pre-Chorus Build-Up (Play louder with each chord)
e|-----------------------|
B|-----------------------|
G|-----------------------|
D|----5-5-5-5------------|
A|----3-3-3-3------------|
E|-----------------------|


Pre-Chorus
e|-------------------------------------------------------------------------------|
B|-------------------------------------------------------------------------------|
G|------------5-4------------5-4--------------5-4--------------5-4---------------|
D|----------------5---------------5---2----2-------5---2-2--2------5-------------|
A|----3----3----------3-3--3-----------------------------------------------------|
E|-------------------------------------------------------------------------------|


Chorus
e|----------------------------------------------|
B|----------------------------------------------|
G|------------------------5---------7-----------|
D|----5---------2---------5--(x16)--7--(x16)----|
A|----5--(x16)--2--(x16)--3---------5-----------|
E|----3---------0-------------------------------|


Interlude (Played On Bass)
e|------------------------------|
B|------------------------------|
G|------------------------------|
D|------------------------------|
A|----0-2--0-2--0-2--0-2-3-2-0--|
E|------------------------------|


Alternate End To Final Chorus (Listen, you'll hear it)
e|-------------------|
B|-------------------|
G|--7--------8-------|
D|--7--(x8)--8--(x8)-|
A|--5--------6-------|
E|-------------------|


End On
e|----------------|
B|----------------|
G|----------------|
D|----------------|
A|----7/----------|
E|----------------|


LYRICS:

I realize that I'm just naturally inclined
to go and let you down, alright
I've heard this argument made thousand of times
I guess I get it now, alright
If physics dictates things are going to break
just when the pressure's on, alright
Science will just have to surrender to faith
cuz I won't let you down, all right

Oh oh oh, oh oh oh
Oh oh oh, oh oh oh
Oh oh oh, oh oh oh
Oh oh oh, oh oh oh

You know that I wouldn't say
something I didn't mean.
How many times can this be repeated
before you believe that I do believe?
I believe it.

I know that evidence is gonna suggest
that I would let you down, alright
Given our history what can you expect?
I guess I get it now, alright
This might just buckle under all of the weight
now that the pressure's on, alright
All I can ask is that you muster the faith
that I won't let you down, all right

Oh oh oh, oh oh oh
Oh oh oh, oh oh oh
Oh oh oh, oh oh oh
Oh oh oh, oh oh oh

You know that I wouldn't say
something I didn't mean.
How many times can this be repeated
before you believe that I do believe it?
I wouldn't say
something I didn't mean.
How many times can this be repeated
before you believe that I do believe?
I believe it.

Oh, I believe it.

Oh oh oh, oh oh oh
Oh oh oh, oh oh oh
Oh oh oh, oh oh oh
Oh oh oh, oh oh oh

You know that I wouldn't say
something I didn't mean.
How many times can this be repeated
before you believe that I do believe it?
I wouldn't say
something I didn't mean.
How many times can this be repeated
before you believe that I do believe?
I believe it.


Thanx, Hope its decent enough.

Andrew    

Added On December 16th, 2013

SHARE

Comments

blog comments powered by Disqus

VERSIONS

ADVERTISEMENT