Wednesday 13 Tabs

Ghost Of Vincent Price

2 versions

TAB

            Ghost Of Vincent Price Tab by Wednesday 13


Tabbed by Robin Graves

Ghost of Vincent Price

Keyboard Intro/Gtr. 2

Eb--------------------------|
Bb--------------------------|
Gb—-6~-9-8-6----------------|
Db-----------7~-------------|
Ab--------------9~----------|
Db--------------------------|

Intro Gtr. 1

Eb-------------------------|
Bb-------------------------|
Gb-------------------------|
Db---6~--------------------|
Ab—--4~--7~--4~------------|
Db-------7~--4~------------|

Verse/Chorus (palm-mute for verse)

Eb---------------------------------------|
Bb---------------------------------------|
Gb---------------------------------------|
Db--66-666-666-666-----------------------|
Ab--44-444-444-444-77-777-44-444---------|
Db-----------------77-777-44-444—--------|

Pre-Chorus(play 3x)

Eb--------------------------------------------|
Bb--------------------------------------------|
Gb--------------------------------------------|
Db--------------------------------------------|
Ab-2~--2--4—6~--6--4-2~-----------------------|
Db—2~--2--4—6~--6--4—2~-----------------------|

On the 4th time play this:

Eb-------------------|
Bb-------------------|
Gb-------------------|
Db-------------------|
Ab-2~-1~-------------|
Db—2~-1~-------------|    

Added On December 16th, 2013

SHARE

Comments

blog comments powered by Disqus

VERSIONS

ADVERTISEMENT