Wednesday 13 Tabs

Too Much Blood

2 versions

TAB

            Too Much Blood Tab by Wednesday 13


----------------------------------------------------------------------------
	            TOO MUCH BLOOD - Wednesday 13
----------------------------------------------------------------------------

Tabbed by: Daz
Email: dariuswarr99@hotmail.com

Tuning: 1/2 Step Down

INTRO

    E5

eb|---------------------------------10/12-12-12-12-12-12-12-12-12-12-12----|
Bb|--5-5-5-5-5-5-5------------------10/12-12-12-12-12-12-12-12-12-12-12----|
Gb|--4-4-4-4-4-4-4---------------------------------------------------------|
Db|--2-2-2-2-2-2-2---------------------------------------------------------|
Ab|------------------------------------------------------------------------|
Eb|------------------------------------------------------------------------|


MAIN RHYTHM

    D5 E5

eb|------------------------------------------------------------------------|
Bb|------------------------------------------------------------------------|
Gb|-7-9-9-9-9--7-9-9-9-9--7-9-9-9-9--7-9-9-9-9--7-9-9-9-9--7-9-9-9-9-------|
Db|-7-9-9-9-9--7-9-9-9-9--7-9-9-9-9--7-9-9-9-9--7-9-9-9-9--7-9-9-9-9-------|
Ab|-5-7-7-7-7--5-7-7-7-7--5-7-7-7-7--5-7-7-7-7--5-7-7-7-7--5-7-7-7-7-------|
Eb|------------------------------------------------------------------------|

Pre- Chorus (Lead)

   N.C (E5)

eb|-15-14-12-15-14-12-15-14-12-15-14-12-15-14-12-15-14-12-15-14-12-15-14-12|
Bb|------------------------------------------------------------------------|
Gb|------------------------------------------------------------------------|
Db|------------------------------------------------------------------------|
Ab|------------------------------------------------------------------------|
Eb|------------------------------------------------------------------------|


============================================================================    

Added On December 16th, 2013

SHARE

Comments

blog comments powered by Disqus

VERSIONS

ADVERTISEMENT