Ween Tabs

I Got A Weasel

1 versions

TAB

            ------------------------------------------------------------------------------
			                          I Got A Weasel - Ween
------------------------------------------------------------------------------
Tabbed by: SyntheticSocks

Tuning: Standard EADGBE

Verse riff
E---------------------------------|
B---------------------------------|
G-----------------3--6p3-0-0------|
D-----------2--5------------------|
A-----1--4------------------------|
E--3------------------------------|

   Chorus Riff
E--------------------------------------------------------|
B--------------------------------------------------------|
G--------3--0--------------------------------2(bend------|
D-----2--------------3--0--------2--0-----1--------------|slightly)
A--3--------------2-----------1--------2-----------------|
E--------------3-----------2-----------------------------|    

Added On December 16th, 2013

SHARE

Comments

blog comments powered by Disqus

ADVERTISEMENT