Who Tabs

Its A Boy

2 versions

TAB

            Its A Boy Tab by Who


The Who:It's A Boy (Tommy)
Tabbed by Jason Freeman

     D                            F    D     D
E----2------2-----0-|----0-----------------|-0-------------------|
B------3------3-----|-------3--------------|-2-------------------|
G--2-----2------2---|-2-------2------------|-3-3-3-3-3-3-3-3-3-3-|
D--0----------------|-------------3-3--0-0-|-0-0-0-0-0-0-0-0-0-0-|
A--0----------------|-------------3-3--0-0-|-0-0-0-0-0-0-0-0-0-0-|
E-------------------|----------------------|---------------------|
                                                      F   D
E--0-------------------|----2-----2------0-|---0-----------------|
B--2-------------------|------3-----3------|-----3---------------|
G--3-3-3-3-3-3-3-3-3-3-|-2------2-----2----|-2-----2-------------|
D--0-0-0-0-0-0-0-0-0-0-|-0-----------------|----------3-3-0-0----|
A--0-0-0-0-0-0-0-0-0-0-|-0-----------------|----------3-3-0-0----|
E----------------------|-------------------|---------------------|
                                       F   D                     w/echo
E----0-----0-----------|----0------------------|---0-----0-----0-0--|
B------3-----3------3--|------3----------------|-----3-----3-----3--|
G--2-----2-----2--2----|-2------2---2----------|-2-----2-----2---2--|
D----------------------|------------0--3-3-0-0-|-----------------0--|
A----------------------|---------------3-3-0-0-|--------------------|
E----------------------|-----------------------|--------------------|

   E                                              A
   (16th notes for 1 measure)    (ring out)     (16ths for 1&1/2 measure)
E--0---------------------------|--0------------|--0-------------------|
B--0---------------------------|--0------------|--2-------------------|
G--1---------------------------|--1------------|--2-------------------|
D--2---------------------------|--2------------|--2-------------------|
A--2---------------------------|--2------------|--0-------------------|
E--0---------------------------|--0------------|--0-------------------|    

Added On December 16th, 2013

SHARE

Comments

blog comments powered by Disqus

VERSIONS

ADVERTISEMENT