Widespread Panic Tabs

Big Wooly Mammoth

1 versions

TAB

            Main Riff:
    /  /  /    /
|---0-------0---------|
|---0-------2-/3-/2---|
|---1-------1-/2-/1---|
|---2-------2-/3-/2---|
|---2-----------------|
|---0-----------------|

Verse 1:
E
E
e |---|---|---|---|---|
B |---|---|---|---|---|
G |-x-|---|---|---|---|
D |---|-x-|---|---|---|
A |---|-x-|---|---|---|
E |---|---|---|---|---|
Like a Big Woolly Mammoth You gotta wear that coat Like his big brother Joseph Yeah, walkin' in the desert sand Like a doughboy in the trenches You gotta lay down low Like a Big Woolly Mammoth You gotta wear that coat Chorus: E
E
e |---|---|---|---|---|
B |---|---|---|---|---|
G |-x-|---|---|---|---|
D |---|-x-|---|---|---|
A |---|-x-|---|---|---|
E |---|---|---|---|---|
A
A
e |---|---|---|---|---|
B |---|-x-|---|---|---|
G |---|-x-|---|---|---|
D |---|-x-|---|---|---|
A |---|---|---|---|---|
E |---|---|---|---|---|
You ain't got time to worry 'bout mass extinction E
E
e |---|---|---|---|---|
B |---|---|---|---|---|
G |-x-|---|---|---|---|
D |---|-x-|---|---|---|
A |---|-x-|---|---|---|
E |---|---|---|---|---|
A
A
e |---|---|---|---|---|
B |---|-x-|---|---|---|
G |---|-x-|---|---|---|
D |---|-x-|---|---|---|
A |---|---|---|---|---|
E |---|---|---|---|---|
Just try and get along with the human beings E
E
e |---|---|---|---|---|
B |---|---|---|---|---|
G |-x-|---|---|---|---|
D |---|-x-|---|---|---|
A |---|-x-|---|---|---|
E |---|---|---|---|---|
C
C
e |---|---|-x-|---|---|
B |-x-|---|---|---|---|
G |---|---|---|---|---|
D |---|-x-|---|---|---|
A |---|---|-x-|---|---|
E |---|---|---|---|---|
Big Wooly Mammoth gonna wear that coat B
B
e |---|-x-|---|---|---|
B |---|---|---|-x-|---|
G |---|---|---|-x-|---|
D |---|---|---|-x-|---|
A |---|-x-|---|---|---|
E |---|-x-|---|---|---|
In the middle of the summertime Bridge: Small jam over an A chord with a A>G>F#>F>E for 4 measures JB transition riff (played solo): / / / / |----------------------------| |----------------------------| |---------------------2--0---| |---------------2--0---------| |---------0--2---------------| |---0--3---------------------| Verse 2: You got a woman in the city She got a brand new coat Sometimes I feel like an evolutionary reject Yeah, livin' in a high-tech world Like a cool armadillo You gotta lay down low Like the Big Woolly Mammoth You gotta wear that coat (Chorus) Jam over A (JB transition riff) Verse 3: Another ice age is comin' You better wear your coat Somebody throw me a fire So we can burn this city down Like a doughboy in the trenches You gotta lay down low Like the Big Woolly Mammoth You gotta wear that coat Last Chorus: Everybody needs some weapons of mass destruction Gonna kill you with a virus and a dose of radiation Like a Big Wooly Mammoth gonna wear that coat In the middle of the summertime Jam over A

Added On December 16th, 2013

SHARE

Comments

blog comments powered by Disqus

ADVERTISEMENT