Widespread Panic Tabs

Cardboard Box

1 versions

TAB

            Theme 1:
     /      /   /   /       /        /    /   /
|------------------------|---------------------------|
|------------------------|---------------------------|
|.----h------------------|----h----------------------|
|.---9^11-9---7-----7----|--12^14-12---11-----11-----|
|-----------0-----0---0--|-----------0------0----0---|
|------------------------|---------------------------|
    /        /   /   /       /      /   /   /
|-------------------------|------------------------|
|-------------------------|------------------------|
|-----h-------------------|---h-------------------.|
|---11^12-11---9-----9----|--9^11-9---7-----7-----.|
|------------0-----0---0--|---------0-----0---0----|
|-------------------------|------------------------|

Theme 2:
     /   /   /   /       /     /     /    /   x4
|---------------------|------------------------|
|---------------------|------------------------|
|.-------------6---7--|-----------------7---6-.|
|.---7-7-7-7-7-7---9--|--9--9--9--9--9--7---7-.|
|----7-7-7-7-7-7---10-|--10-10-10-10-10-9---7--|
|---------------------|------------------------|    

Added On December 16th, 2013

SHARE

Comments

blog comments powered by Disqus

ADVERTISEMENT