Wolfgang Tabs

Halik Ni Hudas

4 versions

TAB

            Halik Ni Hudas Tab by Wolfgang


Song Title: Halik ni Hudas
By: Wolfgang
Album: Wolfgang
Tuning:Eb
Transcribed By: Choo Nerez
(If you have any comments or suggestions to the transcription,pls feel free to mail me
at this address, joshnerez@yahoo.com)

*I think yung solo is not 100% complete yet(tatapusin ko pa),pero you can add it anyways,
kasi sa sobrang bilis ng kamay ni Manuel Legarda yung mga notes lang ng Em minor blues
scale lang ang nadidinig ko..kanya-kanyang diskarte lang naman yan eh,you dont have to
copy all the notes to what Manuel is playing,plagarism na un..thats one hell of a solo
from Manuel...happy pickin'...

Notation Legend:

*	= 	Pinch Harmonics
p	=	Pull-off
h	=	Hammer-on
b	=	Bend
r	=	Release
[]	=	Natural Harmonics
P.M.	=	Palm Mute
t	=	Tap
x	=	Dead String
tr	=	Tremelo Picking
tr~	=	Trill
~	=	Vibrato
s	=	Slide

Key: Em 

Intro/Verse:

Mga asong naloloko...

eb|-----------------------------------------|
Bb|-----------------------------------------|
Gb|-----------------------------------------|
Db|------------------------------7----------|
Ab|---5h7---7-7-7---7-7-7---5-6-7---7-6-5---|
Eb|---3h5---5-5-5---5-5-5-------------------|

Pre-Chorus:

Kukunin niya lahat sa iyo...

                              P.M. - - - |
eb|---------------------------------------|
Bb|---------------------------------------|
Gb|---------------------------------------|
Db|-----------------------2p0---4---2-0---|
Ab|---4---4-4-4---4-4-4-------------------|
Eb|---2---2-2-2---2-2-2-------0---0-------|

			      P.M. - |
eb|-------------------------------------|
Bb|-------------------------------------|
Gb|-------------------------------------|
Db|-----------------------2p0-----------|
Ab|---4---4-4-4---4-4-4---------4---2---|
Eb|---2---2-2-2---2-2-2-------0---0-----|

Chorus:

Tao sa pangil ng buwaya...

eb|-------------------------------------|
Bb|--10---10-10----8---7-8----10---10---|
Gb|---9----9--9----9---9-9-----9----9---|
Db|---7----7--7----7---7-7-----7----7---|
Ab|-----0-------0----0-----0-----0------|
Eb|-----0-------0----0-----0-----0------|

eb|-----------------------------------|
Bb|-----------------------------------|
Gb|---4h5p4p2h------------------------|
Db|-----------5p4p2---4h5p4p2h--------|
Ab|---------------------------5p3p2---|
Eb|-----------------------------------|

eb|-------------------------------------|
Bb|--10---10-10----8---7-8----10---10---|
Gb|---9----9--9----9---9-9-----9----9---|
Db|---7----7--7----7---7-7-----7----7---|
Ab|-----0-------0----0-----0-----0------|
Eb|-----0-------0----0-----0-----0------|

eb|---------------------------|
Bb|---------------------------|
Gb|---------------------------|
Db|---4h5-5h7-----------------|
Ab|---2h3-3h5-4h5-5s4--4--5---|
Eb|-----------2h3-3s2--2--3---|

Solo:

       tr  tr  tr  tr  
eb|---------------------------------------------|
Bb|---------------------------------------------|
Gb|--------12--11--12--14b16r12---14p12----12---|
Db|---s14-------------------------------14------|
Ab|---------------------------------------------|
Eb|---------------------------------------------|
								(2x)
eb|------------------------------||-------------------------------||
Bb|------------------------------||-------------------------------||
Gb|------------------------------||------17--21p17-----17--19p17--||
Db|--11-----12-----14-----16-----||---19------------19------------||
Ab|--14b16--15b17--17b19--19b21--||-------------------------------||
Eb|------------------------------||-------------------------------||

eb|-----------------------------15b-r15-15b-17b---------------|
Bb|--17b19--17b19--17p15----15--------------------------------|
Gb|----------------------17-----------------------------------|
Db|-----------------------------------------------------------|
Ab|-----------------------------------------------------------|
Eb|-----------------------------------------------------------|

eb|--17p15-14-14-15p14-12-12-14p12-10-10-12p10-8-8-10p8-------|
Bb|-----------------------------------------------------------|
Gb|-----------------------------------------------------------|
Db|-----------------------------------------------------------|
Ab|-----------------------------------------------------------|
Eb|-----------------------------------------------------------|

eb|--7-7-8p7-5-5-7p5---------------|---------------------------|
Bb|-------------------7-7p5--------|---------------------------|
Gb|-------------------------7-7s9--|--9p7---7------------------|
Db|--------------------------------|------9---9-7-9p7---7------|
Ab|--------------------------------|------------------9---9-7--|
Eb|--------------------------------|---------------------------|

eb|-----------------------|-------------------|-------------|
Bb|-----------------------|-------------------|-------------|
Gb|-----------------------|----7---9b-r9---7--|----7-9p7----|
Db|-----------------------|--9---9-------9----|--9-------9--|
Ab|-----7---------7----9--|-------------------|-------------|
Eb|--10---10-7-10---10----|-------------------|-------------|

eb|------------------------------|
Bb|------------------------------|
Gb|------------------------------|
Db|--9p7-------------------------|
Ab|------9-9p7-5-7p5----------2--|
Eb|------------------7-7p5p3--0--|

(Bass: Magtiwala ka sa akin...)

           P.M.-- |            (2x)         P.M.-- |
eb|---------------------|---------||---------------------------|
Bb|---------------------|---------||---------------------------|
Gb|---------------------|---------||---------------------------|
Db|---------------------|---------||---------------------------|
Ab|--------------2-3~---|---------||--------------2-3~---------|
Eb|---5~---2-3-5--------|---2-3---||---5~---2-3-5--------2-3---|

eb|-------------------------------------------|
Bb|-------------------------------------------|
Gb|-------------------------------------------|
Db|-------------------------------------------|
Ab|------7-5-------5-3------3-2------2-0------|
Eb|---8--------7---------5--------3-------2---|

(Verse3)
(Repeat Pre-chorus)

Chorus:

Tao sa pangil ng buwaya...

eb|-------------------------------------|
Bb|--10---10-10----8---7-8----10---10---|
Gb|---9----9--9----9---9-9-----9----9---|
Db|---7----7--7----7---7-7-----7----7---|
Ab|-----0-------0----0-----0-----0------|
Eb|-----0-------0----0-----0-----0------|

eb|-----------------------------------|
Bb|-----------------------------------|
Gb|---4h5p4p2h------------------------|
Db|-----------5p4p2---4h5p4p2h--------|
Ab|---------------------------5p3p2---|
Eb|-----------------------------------|

eb|-------------------------------------|
Bb|--10---10-10----8---7-8----10---10---|
Gb|---9----9--9----9---9-9-----9----9---|
Db|---7----7--7----7---7-7-----7----7---|
Ab|-----0-------0----0-----0-----0------|
Eb|-----0-------0----0-----0-----0------|

eb|-----------------------------------|
Bb|-----------------------------------|
Gb|---4h5p4p2h------------------------|
Db|-----------5p4p2---4h5p4p2h--------|
Ab|---------------------------5p3p2---|
Eb|-----------------------------------|

eb|-------------------------------------|
Bb|--10---10-10----8---7-8----10---10---|
Gb|---9----9--9----9---9-9-----9----9---|
Db|---7----7--7----7---7-7-----7----7---|
Ab|-----0-------0----0-----0-----0------|
Eb|-----0-------0----0-----0-----0------|

eb|-----------------------------------|
Bb|-----------------------------------|
Gb|---4h5p4p2h------------------------|
Db|-----------5p4p2---4h5p4p2h--------|
Ab|---------------------------5p3p2---|
Eb|-----------------------------------|

eb|-------------------------------------|
Bb|--10---10-10----8---7-8----10---10---|
Gb|---9----9--9----9---9-9-----9----9---|
Db|---7----7--7----7---7-7-----7----7---|
Ab|-----0-------0----0-----0-----0------|
Eb|-----0-------0----0-----0-----0------|

eb|----------------------------|
Bb|----------------------------|
Gb|----------------------------|
Db|---4h5-5h7------------------|
Ab|---2h3-3h5-4h5-5s4--4--5--7-|
Eb|-----------2h3-3s2--2--3--5-|    

Added On December 16th, 2013

SHARE

Comments

blog comments powered by Disqus

VERSIONS

ADVERTISEMENT