10 Years Tabs

Seasons To Cycles

4 versions

TAB

            Seasons To Cycles Tab by 10 Years


Tabbed by: Cory
Email: guitarxplayer13@yahoo.com
This is 100% correct it is how I play it the only thing is I'm not quite posative if it 
D tuning or Db tuning but I think it sounds fine either way you choose so have fun, 
song, great cd!

Intro and Verses: (Repeat as necessary)
e|-------------------------------|
B|-------------------------------|
G|-------------------------------|
D|------5~~---------7---------4--|
A|----2-----------5---------0----|
D|--2----------/5---------0------|

Chorus:  (Optional notes play 2 frets up on the G string for each chord for more of a 
sound, not played this way in the song but I think it sounds better if you can reach that far)
e|-----------------------------------------------------|
B|-----------------------------------------------------|
G|-----------------------------------------------------|
D|--5-5-5-5-5-5-5-5--7-7-7-7-7-7-7-7--4-4-4-4-4-4-4-4--|
A|--2-2-2-2-2-2-2-2--5-5-5-5-5-5-5-5--0-0-0-0-0-0-0-0--|
D|--2-2-2-2-2-2-2-2--5-5-5-5-5-5-5-5--0-0-0-0-0-0-0-0--|

Outro:                                                    LR
e|-----------------------------------------------------------|
B|-----------------------------------------------------------|
G|-----------------------------------------------------------|
D|------5~~---------7---------4--------5---5------5----7--4--|
A|----2-----------5---------0------2---------2---2----5---0--|
D|--2----------/5---------0------2---2---2------2---/5----0--|

If you are new to guitar the end of the outro is a little tricky at first but once you 
it it's easy so good luck and have fun!  Questions and comments are appreiciated!    

Added On December 16th, 2013

SHARE

Comments

blog comments powered by Disqus

VERSIONS

ADVERTISEMENT