3 Inches Of Blood Tabs

Onward To Valhalla

1 versions

TAB

            Onward To Valhalla Tab by 3 Inches Of Blood


Title: Onward to Valhalla
Artist: 3 Inches of Blood
Album: Sect of the White Worm
Tabbed by: Conqueror

Here’s most of the song, probably not 100% right, standard tuning.

|----------------------------------------------------------|
|----------------------------------------------------------|
|----------------------------------------------------------|
|-5-------------7-------------9----------------------------|
|-3-333-333-333-5-555-555-555-7-777-777-777--10--9--7--5---|
|----------------------------------------------------------|
    ... ... ...   ... ... ...   ... ... ...                PM
|-------------------------------------|
|-------------------------------------|
|-------------------------------------|
|-10-9----10-9------10-9-10-/12--10-9-|
|------12------10---------------------|
|-------------------------------------|

|-----------------------------------------------------------|
|-----------------------------------------------------------|
|-9-------------99-------------9-------------99-------------|
|-7-------------77-------------7-------------77-------------|
|---000-000-000----000-000-000---000-000-000----000-000-000-|
|-----------------------------------------------------------|
    ... ... ...    ... ... ...   ... ... ...    ... ... ... PM
|------------------------------------------|
|------------------------------------------|
|------------------------------------------|
|-----------------/12-10-9--10-9-7--10-9-7-|
|-7-9-10--7-9-10---------------------------|
|------------------------------------------|

|------------------------------|
|------------------------------|
|------------------------------|
|------------------------------|
|-10-9-7-5--7-9--10-9-7-5--7-9-|
|------------------------------|

If you have any corrections or pieces of any other 3IoB
song you can send them to me at danielfranke2003@yahoo.com    

Added On December 16th, 2013

SHARE

Comments

blog comments powered by Disqus

ADVERTISEMENT