30 Seconds To Mars Tabs

A Beautiful Lie

4 versions

TAB

            A Beautiful Lie Tab by 30 Seconds To Mars


Band: 30 Seconds To Mars
Song: A Beautiful Lie
Tuning: Drop D [DADGBE]

Posted By: Andreas Karlsson From Chronic Desire [E-Mail: linkinparker_15@hotmail.com]

Intro [its keyboard but u can play it like this on youre guitar with echo/chorus & delay effect]
e|----------------------------------------------|
b|-13--12-----------13--12----------------------|
g|---------12~--------------12~-----------------|
d|----------------------------------------------|
a|----------------------------------------------|
D|----------------------------------------------|

Intro/Chorus Guitar 1 [Jared]
e|----------------------------------------------|
b|----------------------------------------------|
g|----------------------------------------------|
d|-14-----10-----12-----14----------------------|
a|-14-----10-----12-----14----------------------|
D|-14-x32-10-x32-12-x32-14-x32------------------|

Intro/Chorus Guitar 2 [Tomo]
e|----------------------------------------------|
b|-17-----13-----15-----17----------------------|
g|--x------x------x------x----------------------|
d|-14-x32-10-x32-12-x32-14-x32------------------|
a|----------------------------------------------|
D|----------------------------------------------|

[Verse 1 only bass and keyboard!]

[Chrous 1] Guitar 1 [Jared]
e|----------------------------------------------|
b|----------------------------------------------|
g|----------------------------------------------|
d|-14-----10-----12-----14----------------------|
a|-14-----10-----12-----14----------------------|
D|-14-x32-10-x32-12-x32-14-x32------------------|


[Chorus 1] Guitar 2 [Tomo]
e|----------------------------------------------|
b|-17-----13-----15-----17----------------------|
g|--x------x------x------x----------------------|
d|-14-x32-10-x32-12-x32-14-x32------------------|
a|----------------------------------------------|
D|----------------------------------------------|

[Verse 2] Guitar 2 [Tomo] [Palm Mute]
e|----------------------------------------------|
b|----------------------------------------------|
g|----------------------------------------------|
d|10-x32-9-x32-10-x31-9-x1--7-x8-9-x8-10-x16----|
a|----------------------------------------------|
D|----------------------------------------------|

[Chorus 2] Guitar 1 [Jared]
e|-------------------------------------------------------|
b|-------------------------------------------------------|
g|-------------------------------------------------------|
d|-14-----10-----12-----10----12----14-----15----17------|
a|-14-----10-----12-----10----12----14-----15----17------|
D|-14-x32-10-x32-12-x24-10-x4-12-x4-14-x16-15-x8-17-x8---|

[Chorus 2] Guitar 2 [Tomo]
e|-------------------------------------------------------|
b|-17-----13-----15-----13----15----17-----18----20------|
g|--x------x------x------x-----x-----x------x-----x------|
d|-14-x32-10-x32-12-x24-10-x4-12-x4-14-x16-15-x8-17-x8---|
a|-------------------------------------------------------|
D|-------------------------------------------------------|

[Bridge] 
e|--------------------------------------------------------|
b|-13--12---------13--12---------13--12---------12--13--12|
g|---------12~------------12~------------12~--------------|
d|--------------------------------------------------------|
a|--------------------------------------------------------|
D|--------------------------------------------------------|

[Bridge 2] Guitar 2 [Tomo] [Everyones looking at me....] [Palm Mute]
e|--------------------------------------------------------------------|
b|--------------------------------------------------------------------|
g|--------------------------------------------------------------------|
d|--------------------------------------------------------------------|
a|--------------------------------------------------------------------|
D|7-x8-7-x8-9-x4-10-x4-3-x8-3-x14-5-x2-0-x8-0-x16--22-22-22-22-22-3-5-|

[Outro Chorus] Guitar 1 [Jared]
e|----------------------------------------------|
b|----------------------------------------------|
g|----------------------------------------------|
d|7-----10----3-----5----0-----2-----3----5-----|
a|7-----10----3-----5----0-----2-----3----5-----|
D|7-x30-10-x2-3-x30-5-x2-0-x32-2-x24-3-x4-5-x4--|

e|----------------------------------------------|
b|----------------------------------------------|
g|----------------------------------------------|
d|7-----10----3-----5----0-----2----------------|
a|7-----10----3-----5----0-----2----------------|
D|7-x30-10-x2-3-x30-5-x2-0-x32-2-x32------------|

[Outro Chorus] Guitar 2 [Tomo]
e|----------------------------------------------|
b|-17-----13-----15-----17----------------------|
g|--x------x------x------x----------------------|
d|-14-x32-10-x32-12-x32-14-x32------------------|
a|----------------------------------------------|
D|----------------------------------------------|

e|----------------------------------------------|
b|-17-----13-----15-----17----------------------|
g|--x------x------x------x----------------------|
d|-14-x32-10-x32-12-x32-14-x32------------------|
a|----------------------------------------------|
D|----------------------------------------------|

[Outro]
e|----------------------------------------------|
b|-13--12-----------13--12----------------------|
g|---------12~--------------12~-----------------|
d|----------------------------------------------|
a|----------------------------------------------|
D|----------------------------------------------|    

Added On December 16th, 2013

SHARE

Comments

blog comments powered by Disqus

VERSIONS

ADVERTISEMENT