TAB

            Fly Tab by 6 Cycle Mind


Fly
6cyclemind

-ejreyes37@yahoo.com-

Intro:
e----------------------------------------------------------------------|
b----------------------------------------------------------------------|
g-------9----9-11-11s13------9-11s13-11------9-14-13-11------9---------|
d-8h9-9---9--9----------9h11------------9h11------------9h11---11-9-11-|
a----------------------------------------------------------------------|
e----------------------------------------------------------------------|

e--------------------------------------------------------------------------|
b--------------------------------------------------------------------------|
g------9-11-11s13------9-11s13-11------9-14-13-11------9-------------------|
d-9h11------------9h11------------9h11------------9h11----11-9-11----------|
a-----------------------------------------------------------------11-9-11--|
e--------------------------------------------------------------------------|

Stanza1:
 E           A
alone dont leave me
higher please take me
away dont go
C#m           B        A
take me to a special place

Chorus:
      E
come fly with me
  A
across the sea
E                 A
to a place where we can be free

Stanza2:
 E         A
pain dont give me
happiness you give me
away just take me
C#m           B        A
take me to a special place

E   A
fly...fly...

Solo:
e--------------------------------------------------------------------------|
b--------------------------------------------------------------------------|
g------9-11-11s13------9-11s13-11------9-14-13-11------9-------------------|
d-9h11------------9h11------------9h11------------9h11----11-9-11----------|
a-----------------------------------------------------------------11-9-11--|
e--------------------------------------------------------------------------|

e--------------------------------------------------------------------|
b--------------------------------------------------------------------|
g-8h9-8h9-8h9-8h9-8h9-9-9-11-11-11-13-13-13-14-14-14-13-13-13--11--9-|
d--------------------------------------------------------------------|
a--------------------------------------------------------------------|
e--------------------------------------------------------------------|

e----------------------------------------------------------------------|
b----------------------------------------------------------------------|
g-8h9-8h9-8h9-8h9-8h9-9-9-11-11-11-13-13-13-14-14-14-13-13-13--11h13-9-|
d----------------------------------------------------------------------|
a----------------------------------------------------------------------|
e----------------------------------------------------------------------|

(repeat chorus)...    

Added On December 16th, 2013

SHARE

Comments

blog comments powered by Disqus

ADVERTISEMENT