A Change Of Pace Tabs

Loose Lips Sink Ships

3 versions

TAB

            Loose Lips Sink Ships Tab by A Change Of Pace


And the truth is i'm the first one to tab out this song. You'll probably see this
tab on other sites now with people claiming it's theres or something. It's all
pretty accurate. Listen to the song.


Intro guitar 1
e|-----------------------------------------------------------------|
B|-----------------------------------------------------------------|
G|-----------------------------------------------------------------|
D|-9~---10~---12~---14~--------------------------------------------|
A|-----------------------------------------------------------------|
D|-----------------------------------------------------------------|
then
Intro 2
e|-------------------------------------------------|
B|-------------------------------------------------|
G|-------------------------------------------------|
D|--0--888--0--888--0--888-1010101010--------------|x2
A|--0--888--0--888--0--888-1010101010--------------|
D|--0--888--0--888--0--888-1010101010--------------|


Verse- Guitar 2
e|------------------------------------------------------|
B|------------------------------------------------------|
G|------------------------------------------------------|
D|--0~----8~---10~---0~---------------------------------|x2, listen for timing
A|--0~----8~---10~---0~---------------------------------|
D|--0~----8~---10~---0~---------------------------------|

Guitar 1- Listen for timing, it's easy (mess with these notes)
e|-------------------------------------------------------------|
B|-------------------------------------------------------------|
G|------9h10h9-7---10-7----------------------------------------|
D|--7-7----------0---------------------------------------------| x8
A|-------------------------------------------------------------|
D|-------------------------------------------------------------|
    . .          .


Pre-Chorus - Guitar 2 'In trans in noise and words and phrases'
on the 2nd 8's play the first 4 open then 4 open 10's instead of all PM'd 8's.
e|-----------------------------------------------------------------------|
B|-----------------------------------------------------------------------|
G|-----------------------------------------------------------------------|
D|-000000000-8888888888-000000000-88888888-------------------------------|
A|-000000000-8888888888-000000000-88888888-------------------------------|
D|-000000000-8888888888-000000000-88888888-------------------------------|
 pm......... .......... ......... ........

Guitar-1 - come in on the last 8's with this.
e|--------------------------------------------------------------|
B|--------------------------------------------------------------|
G|--10101010--12121212------------------------------------------|
D|--x x x x----x-x-x-x------------------------------------------|
A|--8 8 8 8---10101010------------------------------------------|
D|--------------------------------------------------------------|


Chorus- Guitar 2, the 0's are optional. Guitar 1 will fill in either way.
e|--------------------------------------------------------------|
B|--------------------------------------------------------------|
G|--------------------------------------------------------------|
D|--8888888--101010101010--0000-0000--00------------------------|
A|--8888888--101010101010--0000-0000--00------------------------|x4
D|--8888888--101010101010--0000-0000--00------------------------|

Guitar 1
e|---------------------------------------------------|
B|---------------------------------------------------|
G|-777777-999999-10101010-10101010-1010--------------|
D|-xxxxxx-xxxxxx-x-x-x-x--x-x-x-x--x-x---------------|
A|-555555-777777-8-8-8-8--8-8-8-8--8-8---------------|
D|---------------------------------------------------|
continued, play this riff twice. 2nd time through change rhythm on 8x10
e|----------------------------------------------------------|and don't play the
B|---------------------------------------------------|12x14-| just let
G|-777777-999999-14141414-14141414--1414--------------------|guitar 2 end it
D|-xxxxxx-xxxxxx--x-x-x-x--x-x-x-x---x-x--------------------|with the ring out
A|-555555-777777-12121212-12121212--1212-------------|of 0--| and go into
D|----------------------------------------------------------|post chorus.

Post Chorus- Guitar 1 only
e|-------------------------------------------------|
B|-------------------------------------------------|
G|-----9h10h9--7-----10----------------------------|x2
D|-000-----------000-------------------------------|
A|-------------------------------------------------|
D|-------------------------------------------------|
pm ...           ...


Repeat:(in order)
Intro 2
Verse
Pre-Chorus
Chorus


Bridge- Guitar 2 x2 
e|-----------------------------------------------------|
B|-----------------------------------------------------|
G|-----------------------------------------------------|
D|-00000000--88888888--00000000--8888-10101010---------|
A|-00000000--88888888--00000000--8888-10101010---------|
D|-00000000--88888888--00000000--8888-10101010---------|

then post chorus x4
then chorus x2
For the outro play intro 2 a little faster a few times and go back into the normal
way to play it, again you must listen to the song it's kind of hard to explain © tab by YeaOk ©    

Added On December 4th, 2013

SHARE

Comments

blog comments powered by Disqus

VERSIONS

ADVERTISEMENT