A Day To Remember Tabs

Better Off This Way

2 versions

TAB

            A day to remember - Better off this way
What Seperates Me from you
2010

Capo on 3rd Fret

Verse:
'I wonder if you would notice, if they locked me up and  threw away the key'
[accord]Bm[/accord]

'You gotta be open minded....'
[accord]Em[/accord]

'You've got alot to learn in the ways of me'
[accord]G[/accord]

Chorus:
'When you fall, i will be the only one that looks away...'
[accord]G[/accord]           [accord]D[/accord]           [accord]A[/accord]

(Chords carry on the same throughout 
the chorus and into the bridge/breakdown)

Bridge/Breakdown:

[accord]G[/accord], [accord]D[/accord], [accord]A[/accord]


First ever submission on ultimate guitar,
Listen to the song for strumming patterns, 
Hope this helped a little 
xBetter Off This Way
A Day To Remember
What Separates Me From You (2010)

Words & Music by Jeremy McKinnon, Neil Westfall, Kevin Skaff, Joshua Woodward, 
and Alex Shellnut

GTR I - Drop B Tuning "Kevin Skaff" (c#,G#,E,B,F#,B)
GTR II - Drop B Tuning "Neil Westfall" (c#,G#,E,B,F#,B)

Intro

   GTR I
c#|-------------------------------------------------|
G#|-------------------------------------------------|
 E|-------------------------------------------------|
 B|--2-----2----------------------------------------|
F#|--2-----2----------------------------------------|
 B|--2-----2----------------------------------------|
  |
  |GTR II
c#|-------------------------------------------------|
G#|-------------------------------------------------|
 E|-------------------------------------------------|
 B|--2-----2----------------------------------------|
F#|--2-----2-----2--2--2--2--2--2--5--5--5--0--0--0-|
 B|--2-----2-----2--2--2--2--2--2--5--5--5--0--0--0-|
                 .  .  .  .  .  .  .  .  .  .  .  .

   GTR I
c#|-------------------------------------------------|
G#|-------------------------------------------------|
 E|-------------------------------------------------|
 B|--2-----2----------------------------------------|
F#|--2-----2----------------------------------------|
 B|--2-----2----------------------------------------|
  |
  |GTR II
c#|-------------------------------------------------|
G#|-------------------------------------------------|
 E|-------------------------------------------------|
 B|--2-----2----------------------------------------|
F#|--2-----2-----2--2--2--2--2--2--5--5--5--0--0--0-|
 B|--2-----2-----2--2--2--2--2--2--5--5--5--0--0--0-|
                 .  .  .  .  .  .  .  .  .  .  .  .

   GTR I
c#|-------------------------------------------------|
G#|-------------------------------------------------|
 E|-------------------------------------------------|
 B|--5-----5----------------------------------------|
F#|--3-----3----------------------------------------|
 B|--2-----2----------------------------------------|
  |
  |GTR II
c#|-------------------------------------------------|
G#|-------------------------------------------------|
 E|-------------------------------------------------|
 B|--5-----5----------------------------------------|
F#|--3-----3-----3--3--3--3--3--3--5--5--5--0--0--0-|
 B|--2-----2-----2--2--2--2--2--2--5--5--5--0--0--0-|
                 .  .  .  .  .  .  .  .  .  .  .  .

   GTR I
c#|-------------------------------------------------|
G#|-------------------------------------------------|
 E|-------------------------------------------------|
 B|--5-----5----------------------------------------|
F#|--3-----3-----------------------Pickslide--------|
 B|--2-----2-----------------------Pickslide--------|
  |
  |GTR II
c#|-------------------------------------------------|
G#|-------------------------------------------------|
 E|-------------------------------------------------|
 B|--5-----5----------------------------------------|
F#|--3-----3-----3--3--3--3--3--3--5--5--5--0--0--0-|
 B|--2-----2-----2--2--2--2--2--2--5--5--5--0--0--0-|
                 .  .  .  .  .  .  .  .  .  .  .  .

Verse

   GTR I
c#|-------------------------------------------------|
G#|-------------------------------------------------|
 E|-16----16----12-12-12-12-14-14-14-14-11-11-11-11-|
 B|-14----14----12-12-12-12-12-12-12-12-12-12-12-12-|
F#|-------------------------------------------------|
 B|-------------------------------------------------|
  |
  |GTR II
c#|-------------------------------------------------|
G#|-------------------------------------------------|
 E|-------------------------------------------------|
 B|--2-----2----------------------------------------|
F#|--2-----2-----2--2--2--2--2--2--5--5--5--0--0--0-|
 B|--2-----2-----2--2--2--2--2--2--5--5--5--0--0--0-|
                 .  .  .  .  .  .  .  .  .  .  .  .

   GTR I
c#|-------------------------------------------------|
G#|-------------------------------------------------|
 E|-16----16----12-12-12-12-14-14-14-14-11-11-11-11-|
 B|-14----14----12-12-12-12-12-12-12-12-12-12-12-12-|
F#|-------------------------------------------------|
 B|-------------------------------------------------|
  |
  |GTR II
c#|-------------------------------------------------|
G#|-------------------------------------------------|
 E|-------------------------------------------------|
 B|--2-----2----------------------------------------|
F#|--2-----2-----2--2--2--2--2--2--5--5--5--0--0--0-|
 B|--2-----2-----2--2--2--2--2--2--5--5--5--0--0--0-|
                 .  .  .  .  .  .  .  .  .  .  .  .

   GTR I
c#|-------------------------------------------------|
G#|-------------------------------------------------|
 E|--9--9--9--9-11-11-11-11-12-12-12-12-14-14-14-14-|
 B|-10-10-10-10-10-10-10-10-12-12-12-12-12-12-12-12-|
F#|-------------------------------------------------|
 B|-------------------------------------------------|
  |
  |GTR II
c#|-------------------------------------------------|
G#|-------------------------------------------------|
 E|-------------------------------------------------|
 B|--5-----5----------------------------------------|
F#|--3-----3-----3--3--3--3--3--3--5--5--5--0--0--0-|
 B|--2-----2-----2--2--2--2--2--2--5--5--5--0--0--0-|
                 .  .  .  .  .  .  .  .  .  .  .  .

   GTR I
c#|-------------------------------------------------|
G#|-------------------------------------------------|
 E|--9--9--9--9-11-11-11-11-12-12-12----------------|
 B|-10-10-10-10-10-10-10-10-12-12-12-12-12-12-12-12-|
F#|-------------------------------------------------|
 B|-------------------------------------------------|
  |
  |GTR II
c#|-------------------------------------------------|
G#|-------------------------------------------------|
 E|-------------------------------------------------|
 B|--5-----5-----------------------------x--x--x--x-|
F#|--3-----3-----3--3--3--3--3--3--5--5--x--x--x--x-|
 B|--2-----2-----2--2--2--2--2--2--5--5--x--x--x--x-|
                 .  .  .  .  .  .  .  .            

Chorus

   GTR I,II
c#|-------------------------------------------------|
G#|-------------------------------------------------|
 E|-------------------------------------------------|
 B|-10-10-10-10-10-10-10-10--5--5--5--5--5--5--5--5-|
F#|-10-10-10-10-10-10-10-10--5--5--5--5--5--5--5--5-|
 B|-10-10-10-10-10-10-10-10--5--5--5--5--5--5--5--5-|

   GTR I,II
c#|-------------------------------------------------|
G#|-------------------------------------------------|
 E|-------------------------------------------------|
 B|--0--0--0--0--0--0--0--0--0--0--0--0--0--0--0--0-|
F#|--0--0--0--0--0--0--0--0--0--0--0--0--0--0--0--0-|
 B|--0--0--0--0--0--0--0--0--0--0--0--0--0--0--0--0-|

   GTR I,II
c#|-------------------------------------------------|
G#|-------------------------------------------------|
 E|-------------------------------------------------|
 B|-10-10-10-10-10-10-10-10--5--5--5--5--5--5--5--5-|
F#|-10-10-10-10-10-10-10-10--5--5--5--5--5--5--5--5-|
 B|-10-10-10-10-10-10-10-10--5--5--5--5--5--5--5--5-|

   GTR I,II
c#|-------------------------------------------------|
G#|-------------------------------------------------|
 E|-------------------------------------------------|
 B|--0--0--0--0--0--0--0--0--0--0--0--0--0--0--0--0-|
F#|--0--0--0--0--0--0--0--0--0--0--0--0--0--0--0--0-|
 B|--0--0--0--0--0--0--0--0--0--0--0--0--0--0--0--0-|

   GTR I,II
c#|-------------------------------------------------|
G#|-------------------------------------------------|
 E|-------------------------------------------------|
 B|-10-10-10-10-10-10-10-10--5--5--5--5--5--5--5--5-|
F#|-10-10-10-10-10-10-10-10--5--5--5--5--5--5--5--5-|
 B|-10-10-10-10-10-10-10-10--5--5--5--5--5--5--5--5-|

   GTR I,II
c#|-------------------------------------------------|
G#|-------------------------------------------------|
 E|-------------------------------------------------|
 B|--0--0--0--0--0--0--0--0--0--0--0--0--0--0--0--0-|
F#|--0--0--0--0--0--0--0--0--0--0--0--0--0--0--0--0-|
 B|--0--0--0--0--0--0--0--0--0--0--0--0--0--0--0--0-|

   GTR I,II
c#|-------------------------------------------------|
G#|-------------------------------------------------|
 E|-------------------------------------------------|
 B|-10-10-10-10-10-10-10-10--5--5--5--5--5--5--5--5-|
F#|-10-10-10-10-10-10-10-10--5--5--5--5--5--5--5--5-|
 B|-10-10-10-10-10-10-10-10--5--5--5--5--5--5--5--5-|

   GTR I,II
c#|-------------------------------------------------|
G#|-------------------------------------------------|
 E|-------------------------------------------------|
 B|--0--0--0--0--0--0--0--0--0--0--0--0--0--0--0--0-|
F#|--0--0--0--0--0--0--0--0--0--0--0--0--0--0--0--0-|
 B|--0--0--0--0--0--0--0--0--0--0--0--0--0--0--0--0-|

Post Chorus

   GTR I
c#|-------------------------------------------------|
G#|-------------------------------------------------|
 E|----12----12-12-------------12----12-12----------|
 B|-----x-----x--x--------------x-----x--x----------|
F#|----10----10-10-------------10----10-10----------|
 B|-------------------------------------------------|
  |
  |GTR II
c#|-------------------------------------------------|
G#|-------------------------------------------------|
 E|-------------------------------------------------|
 B|----10----10-10--------------5-----5--5----------|
F#|----10----10-10--------------5-----5--5----------|
 B|----10----10-10--------------5-----5--5----------|

   GTR I
c#|-------------------------------------------------|
G#|-------------------------------------------------|
 E|----11----11-11-------------11----11-11-16-16-16-|
 B|-----x-----x--x--------------x-----x--x--x--x--x-|
F#|-----9-----9--9--------------9-----9--9-14-14-14-|
 B|-------------------------------------------------|
  |
  |GTR II
c#|-------------------------------------------------|
G#|-------------------------------------------------|
 E|-------------------------------------------------|
 B|-----0-----0--0--------------0-----0--0----------|
F#|-----0-----0--0--------------0-----0--0----------|
 B|-----0-----0--0--------------0-----0--0----------|

   GTR I
c#|-------------------------------------------------|
G#|-------------------------------------------------|
 E|----12----12-12-------------12----12-12----------|
 B|-----x-----x--x--------------x-----x--x----------|
F#|----10----10-10-------------10----10-10----------|
 B|-------------------------------------------------|
  |
  |GTR II
c#|-------------------------------------------------|
G#|-------------------------------------------------|
 E|-------------------------------------------------|
 B|----10----10-10--------------5-----5--5----------|
F#|----10----10-10--------------5-----5--5----------|
 B|----10----10-10--------------5-----5--5----------|

   GTR I
c#|-------------------------------------------------|
G#|-------------------------------------------------|
 E|----11----11-11-------------11-11-11-11-11-11-11-|
 B|-----x-----x--x--------------x--x--x--x--x--x--x-|
F#|-----9-----9--9--------------9--9--9--9--9--9--9-|
 B|-------------------------------------------------|
  |
  |GTR II
c#|-------------------------------------------------|
G#|-------------------------------------------------|
 E|-------------------------------------------------|
 B|-----0-----0--0--------------0--0--0--0--0--0--0-|
F#|-----0-----0--0--------------0--0--0--0--0--0--0-|
 B|-----0-----0--0--------------0--0--0--0--0--0--0-|

Verse

Breakdown

   GTR I
c#|-------------------------------------------------|
G#|-------------------------------------------------|
 E|-16----16----12-12-12-12-14-14-14-14-11-11-11-11-|
 B|-14----14----12-12-12-12-12-12-12-12-12-12-12-12-|
F#|-------------------------------------------------|
 B|-------------------------------------------------|
  |
  |GTR II
c#|--------------------------------------------------|
G#|--------------------------------------------------|
 E|--------------------------------------------------|
 B|--2-----2--2--2--2--------------------------------|
F#|--2-----2--2--2--2--------------2-2-2--0-----0----|
 B|--2-----2--2--2--2--------------2-2-2--0-----0----|
                                   . . .  .     .   

   GTR I
c#|-------------------------------------------------|
G#|-------------------------------------------------|
 E|-16----16----12-12-12-12-14-14-14-14-11-11-11-11-|
 B|-14----14----12-12-12-12-12-12-12-12-12-12-12-12-|
F#|-------------------------------------------------|
 B|-------------------------------------------------|
  |
  |GTR II
c#|--------------------------------------------------|
G#|--------------------------------------------------|
 E|--------------------------------------------------|
 B|--2-----2--2--2--2--------------------------------|
F#|--2-----2--2--2--2--------------2-2-2--0----------|
 B|--2-----2--2--2--2--------------2-2-2--0----------|
                                   . . .  .         

   GTR I
c#|-------------------------------------------------|
G#|-------------------------------------------------|
 E|--9--9--9--9-11-11-11-11-12-12-12-12-14-14-14-14-|
 B|-10-10-10-10-10-10-10-10-12-12-12-12-12-12-12-12-|
F#|-------------------------------------------------|
 B|-------------------------------------------------|
  |
  |GTR II
c#|--------------------------------------------------|
G#|--------------------------------------------------|
 E|--------------------------------------------------|
 B|--5-----5--5--5--5--------------------------------|
F#|--3-----3--3--3--3--------------3-3-3--3-----3----|
 B|--2-----2--2--2--2--------------2-2-2--2-----2----|
                                   . . .  .     .

   GTR I
c#|-------------------------------------------------|
G#|-------------------------------------------------|
 E|--9--9--9--9-11-11-11-11-12-12-12----------------|
 B|-10-10-10-10-10-10-10-10-12-12-12-12-12-12-12-12-|
F#|-------------------------------------------------|
 B|-------------------------------------------------|
  |
  |GTR II
c#|-------------------------------------------------|
G#|-------------------------------------------------|
 E|-------------------------------------------------|
 B|--5-----5--5--5--5--5--5--5--5--5--5--x--x--x--x-|
F#|--3-----3--3--3--3--3--3--3--3--5--5--x--x--x--x-|
 B|--2-----2--2--2--2--2--2--2--2--5--5--x--x--x--x-|
                                                   
Chorus

Post Chorus 2

   GTR I
c#|-------------------------------------------------|
G#|-------------------------------------------------|
 E|----12----12-12-------------12----12-12----------|
 B|-----x-----x--x--------------x-----x--x----------|
F#|----10----10-10-------------10----10-10----------|
 B|-------------------------------------------------|
  |
  |GTR II
c#|-------------------------------------------------|
G#|-------------------------------------------------|
 E|-------------------------------------------------|
 B|----10----10-10--------------5-----5--5----------|
F#|----10----10-10--------------5-----5--5----------|
 B|----10----10-10--------------5-----5--5----------|

   GTR I
c#|-------------------------------------------------|
G#|-------------------------------------------------|
 E|----11----11-11-------------11----11-11-16-16-16-|
 B|-----x-----x--x--------------x-----x--x--x--x--x-|
F#|-----9-----9--9--------------9-----9--9-14-14-14-|
 B|-------------------------------------------------|
  |
  |GTR II
c#|-------------------------------------------------|
G#|-------------------------------------------------|
 E|-------------------------------------------------|
 B|-----0-----0--0--------------0-----0--0----------|
F#|-----0-----0--0--------------0-----0--0----------|
 B|-----0-----0--0--------------0-----0--0----------|

   GTR I
c#|-------------------------------------------------|
G#|-------------------------------------------------|
 E|----12----12-12-------------12----12-12----------|
 B|-----x-----x--x--------------x-----x--x----------|
F#|----10----10-10-------------10----10-10----------|
 B|-------------------------------------------------|
  |
  |GTR II
c#|-------------------------------------------------|
G#|-------------------------------------------------|
 E|-------------------------------------------------|
 B|----10----10-10--------------5-----5--5----------|
F#|----10----10-10--------------5-----5--5----------|
 B|----10----10-10--------------5-----5--5----------|

   GTR I
c#|-------------------------------------------------|
G#|-------------------------------------------------|
 E|----11----11-11-------------11----11-11-16-16-16-|
 B|-----x-----x--x--------------x-----x--x--x--x--x-|
F#|-----9-----9--9--------------9-----9--9-14-14-14-|
 B|-------------------------------------------------|
  |
  |GTR II
c#|-------------------------------------------------|
G#|-------------------------------------------------|
 E|-------------------------------------------------|
 B|-----0-----0--0--------------0-----0--0--0--0--0-|
F#|-----0-----0--0--------------0-----0--0--0--0--0-|
 B|-----0-----0--0--------------0-----0--0--0--0--0-|

Interlude

   GTR I
c#|-------------------------------------------------|
G#|-------------------------------------------------|
 E|-16----16----16-16-16-16-16----16----16-16-16-16-|
 B|--x-----x-----x--x--x--x--x-----x-----x--x--x--x-|
F#|-14----14----14-14-14-14-14----14----14-14-14-14-|
 B|-------------------------------------------------|
  |
  |GTR II
c#|-------------------------------------------------|
G#|-------------------------------------------------|
 E|-------------------------------------------------|
 B|-10----10----10-10-10-10-10----10----10-10-10-10-|
F#|-10----10----10-10-10-10-10----10----10-10-10-10-|
 B|-10----10----10-10-10-10-10----10----10-10-10-10-|

   GTR I
c#|-------------------------------------------------|
G#|-------------------------------------------------|
 E|-12-12-12-14-14-14-16-16-16-11-11-11-11/12-12-12-|
 B|--x--x--x--x--x--x--x--x--x--x--x--x--x--x--x--x-|
F#|-10-10-10-12-12-12-14-14-14--9--9--9--9/10-10-10-|
 B|-------------------------------------------------|
  |
  |GTR II
c#|-------------------------------------------------|
G#|-------------------------------------------------|
 E|-------------------------------------------------|
 B|--5--5--5--5--5--5--5--5--0--0--0--0--0--0--0--0-|
F#|--5--5--5--5--5--5--5--5--0--0--0--0--0--0--0--0-|
 B|--5--5--5--5--5--5--5--5--0--0--0--0--0--0--0--0-|

   GTR I
c#|-------------------------------------------------|
G#|-------------------------------------------------|
 E|-16----16----16-16-16-16-16----16----16-16-16-16-|
 B|--x-----x-----x--x--x--x--x-----x-----x--x--x--x-|
F#|-14----14----14-14-14-14-14----14----14-14-14-14-|
 B|-------------------------------------------------|
  |
  |GTR II
c#|-------------------------------------------------|
G#|-------------------------------------------------|
 E|-------------------------------------------------|
 B|-10----10----10-10-10-10-10----10----10-10-10-10-|
F#|-10----10----10-10-10-10-10----10----10-10-10-10-|
 B|-10----10----10-10-10-10-10----10----10-10-10-10-|

   GTR I
c#|-------------------------------------------------|
G#|-------------------------------------------------|
 E|-19-19-19-17-17-17-16-16-16-11-11-11-11/12-12-12-|
 B|--x--x--x--x--x--x--x--x--x--x--x--x--x--x--x--x-|
F#|-17-17-17-15-15-15-14-14-14--9--9--9--9/10-10-10-|
 B|-------------------------------------------------|
  |
  |GTR II
c#|-------------------------------------------------|
G#|-------------------------------------------------|
 E|-------------------------------------------------|
 B|--5--5--5--5--5--5--5--5--0--0--0--0--0--0--0--0-|
F#|--5--5--5--5--5--5--5--5--0--0--0--0--0--0--0--0-|
 B|--5--5--5--5--5--5--5--5--0--0--0--0--0--0--0--0-|

   GTR I
c#|-------------------------------------------------|
G#|-------------------------------------------------|
 E|-16----16----16-16-16-16-16----16----16-16-16-16-|
 B|--x-----x-----x--x--x--x--x-----x-----x--x--x--x-|
F#|-14----14----14-14-14-14-14----14----14-14-14-14-|
 B|-------------------------------------------------|
  |
  |GTR II
c#|-------------------------------------------------|
G#|-------------------------------------------------|
 E|-------------------------------------------------|
 B|-10----10----10-10-10-10-10----10----10-10-10-10-|
F#|-10----10----10-10-10-10-10----10----10-10-10-10-|
 B|-10----10----10-10-10-10-10----10----10-10-10-10-|

   GTR I
c#|-------------------------------------------------|
G#|-------------------------------------------------|
 E|-12-12-12-14-14-14-16-16-16-11-11-11-11/12-12-12-|
 B|--x--x--x--x--x--x--x--x--x--x--x--x--x--x--x--x-|
F#|-10-10-10-12-12-12-14-14-14--9--9--9--9/10-10-10-|
 B|-------------------------------------------------|
  |
  |GTR II
c#|-------------------------------------------------|
G#|-------------------------------------------------|
 E|-------------------------------------------------|
 B|--5--5--5--5--5--5--5--5--0--0--0--0--0--0--0--0-|
F#|--5--5--5--5--5--5--5--5--0--0--0--0--0--0--0--0-|
 B|--5--5--5--5--5--5--5--5--0--0--0--0--0--0--0--0-|

   GTR I
c#|-------------------------------------------------|
G#|-------------------------------------------------|
 E|-16----16----16-16-16-16-16----16----16-16-16-16-|
 B|--x-----x-----x--x--x--x--x-----x-----x--x--x--x-|
F#|-14----14----14-14-14-14-14----14----14-14-14-14-|
 B|-------------------------------------------------|
  |
  |GTR II
c#|-------------------------------------------------|
G#|-------------------------------------------------|
 E|-------------------------------------------------|
 B|-10----10----10-10-10-10-10----10----10-10-10-10-|
F#|-10----10----10-10-10-10-10----10----10-10-10-10-|
 B|-10----10----10-10-10-10-10----10----10-10-10-10-|

   GTR I
c#|-------------------------------------------------|
G#|-------------------------------------------------|
 E|-19-19-19-17-17-17-16-16-16-11-11-11-11/12-12-12-|
 B|--x--x--x--x--x--x--x--x--x--x--x--x--x--x--x--x-|
F#|-17-17-17-15-15-15-14-14-14--9--9--9--9/10-10-10-|
 B|-------------------------------------------------|
  |
  |GTR II
c#|-------------------------------------------------|
G#|-------------------------------------------------|
 E|-------------------------------------------------|
 B|--5--5--5--5--5--5--5--5--0--0--0--0--0--0--0--0-|
F#|--5--5--5--5--5--5--5--5--0--0--0--0--0--0--0--0-|
 B|--5--5--5--5--5--5--5--5--0--0--0--0--0--0--0--0-|

Bridge

   GTR I
c#|-------------------------------------------------|
G#|-------------------------------------------------|
 E|-12----------------------------------------------|
 B|--x----------------------------------------------|
F#|-10----------------------------------------------|
 B|-------------------------------------------------|

   GTR I
c#|-------------------------------------------------|
G#|-------------------------------------------------|
 E|-11----------------------(5)---------------------|
 B|--x-------------------------------(4)------(5)---|
F#|--9----------------------------------------------|
 B|-------------------------------------------------|

   GTR I
c#|-------------------------------------------------|
G#|-------------------------------------------------|
 E|----12----12-12-------------12----12-12----------|
 B|-----x-----x--x--------------x-----x--x----------|
F#|----10----10-10-------------10----10-10----------|
 B|-------------------------------------------------|
  |
  |GTR II
c#|-------------------------------------------------|
G#|-------------------------------------------------|
 E|-------------------------------------------------|
 B|----10----10-10--------------5-----5--5----------|
F#|----10----10-10--------------5-----5--5----------|
 B|----10----10-10--------------5-----5--5----------|

   GTR I
c#|-------------------------------------------------|
G#|-------------------------------------------------|
 E|----11----11-11-------------11----11-11-16-16-16-|
 B|-----x-----x--x--------------x-----x--x--x--x--x-|
F#|-----9-----9--9--------------9-----9--9-14-14-14-|
 B|-------------------------------------------------|
  |
  |GTR II
c#|-------------------------------------------------|
G#|-------------------------------------------------|
 E|-------------------------------------------------|
 B|-----0-----0--0--------------0-----0--0--0--0--0-|
F#|-----0-----0--0--------------0-----0--0--0--0--0-|
 B|-----0-----0--0--------------0-----0--0--0--0--0-|

Chorus 2

   GTR I,II
c#|-------------------------------------------------|
G#|-------------------------------------------------|
 E|-------------------------------------------------|
 B|-10-10-10-10-10-10-10-10--5--5--5--5--5--5--5--5-|
F#|-10-10-10-10-10-10-10-10--5--5--5--5--5--5--5--5-|
 B|-10-10-10-10-10-10-10-10--5--5--5--5--5--5--5--5-|

   GTR I,II
c#|-------------------------------------------------|
G#|-------------------------------------------------|
 E|-------------------------------------------------|
 B|--0--0--0--0--0--0--0--0--0--0--0--0--0--0--0--0-|
F#|--0--0--0--0--0--0--0--0--0--0--0--0--0--0--0--0-|
 B|--0--0--0--0--0--0--0--0--0--0--0--0--0--0--0--0-|

   GTR I,II
c#|-------------------------------------------------|
G#|-------------------------------------------------|
 E|-------------------------------------------------|
 B|-10-10-10-10-10-10-10-10--5--5--5--5--5--5--5--5-|
F#|-10-10-10-10-10-10-10-10--5--5--5--5--5--5--5--5-|
 B|-10-10-10-10-10-10-10-10--5--5--5--5--5--5--5--5-|

   GTR I
c#|-------------------------------------------------|
G#|-------------------------------------------------|
 E|-------------------------------------------------|
 B|--0--0--0--0--0--0--0--0--0--0--0--0--0--0--0--0-|
F#|--0--0--0--0--0--0--0--0--0--0--0--0--0--0--0--0-|
 B|--0--0--0--0--0--0--0--0--0--0--0--0--0--0--0--0-|
  |
  |GTR II
c#|-------------------------------------------------|
G#|-------------------------------------------------|
 E|-------------------------(5)---------------------|
 B|----------------------------------(4)------(5)---|
F#|-------------------------------------------------|
 B|-------------------------------------------------|

   GTR I,II
c#|-------------------------------------------------|
G#|-------------------------------------------------|
 E|-------------------------------------------------|
 B|-10-10-10-10-10-10-10-10--5--5--5--5--5--5--5--5-|
F#|-10-10-10-10-10-10-10-10--5--5--5--5--5--5--5--5-|
 B|-10-10-10-10-10-10-10-10--5--5--5--5--5--5--5--5-|

   GTR I,II
c#|-------------------------------------------------|
G#|-------------------------------------------------|
 E|-------------------------------------------------|
 B|--0--0--0--0--0--0--0--0--0--0--0--0--0--0--0--0-|
F#|--0--0--0--0--0--0--0--0--0--0--0--0--0--0--0--0-|
 B|--0--0--0--0--0--0--0--0--0--0--0--0--0--0--0--0-|

   GTR I,II
c#|-------------------------------------------------|
G#|-------------------------------------------------|
 E|-------------------------------------------------|
 B|-10-10-10-10-10-10-10-10--5--5--5--5--5--5--5--5-|
F#|-10-10-10-10-10-10-10-10--5--5--5--5--5--5--5--5-|
 B|-10-10-10-10-10-10-10-10--5--5--5--5--5--5--5--5-|

   GTR I
c#|-------------------------------------------------|
G#|-------------------------------------------------|
 E|-------------------------------------------------|
 B|--0--0--0--0--0--0--0--0--0--0--0--0--0--0--0--0-|
F#|--0--0--0--0--0--0--0--0--0--0--0--0--0--0--0--0-|
 B|--0--0--0--0--0--0--0--0--0--0--0--0--0--0--0--0-|
  |
  |GTR II
c#|-------------------------------------------------|
G#|-------------------------------------------------|
 E|-------------------------(5)---------------------|
 B|----------------------------------(4)------(5)---|
F#|-------------------------------------------------|
 B|-------------------------------------------------|

Outro

   GTR I
c#|-------------------------------------------------|
G#|-------------------------------------------------|
 E|----12----12-12-------------12----12-12----------|
 B|-----x-----x--x--------------x-----x--x----------|
F#|----10----10-10-------------10----10-10----------|
 B|-------------------------------------------------|
  |
  |GTR II
c#|-------------------------------------------------|
G#|-------------------------------------------------|
 E|-------------------------------------------------|
 B|----10----10-10--------------5-----5--5----------|
F#|----10----10-10--------------5-----5--5----------|
 B|----10----10-10--------------5-----5--5----------|

   GTR I
c#|-------------------------------------------------|
G#|-------------------------------------------------|
 E|----11----11-11-------------11----11-11-16-16-16-|
 B|-----x-----x--x--------------x-----x--x--x--x--x-|
F#|-----9-----9--9--------------9-----9--9-14-14-14-|
 B|-------------------------------------------------|
  |
  |GTR II
c#|-------------------------------------------------|
G#|-------------------------------------------------|
 E|-------------------------------------------------|
 B|-----0-----0--0--------------0-----0--0----------|
F#|-----0-----0--0--------------0-----0--0----------|
 B|-----0-----0--0--------------0-----0--0----------|

   GTR I
c#|-------------------------------------------------|
G#|-------------------------------------------------|
 E|----12----12-12-------------12----12-12----------|
 B|-----x-----x--x--------------x-----x--x----------|
F#|----10----10-10-------------10----10-10----------|
 B|-------------------------------------------------|
  |
  |GTR II
c#|-------------------------------------------------|
G#|-------------------------------------------------|
 E|-------------------------------------------------|
 B|----10----10-10--------------5-----5--5----------|
F#|----10----10-10--------------5-----5--5----------|
 B|----10----10-10--------------5-----5--5----------|

   GTR I
c#|-------------------------------------------------|
G#|-------------------------------------------------|
 E|----11----11-11----------(5)---------------------|
 B|-----x-----x--x-------------------(4)------(5)---|
F#|-----9-----9--9----------------------------------|
 B|-------------------------------------------------|
  |
  |GTR II
c#|-------------------------------------------------|
G#|-------------------------------------------------|
 E|-------------------------------------------------|
 B|-----0-----0--0-----------0----------------------|
F#|-----0-----0--0-----------0----------------------|
 B|-----0-----0--0-----------0----------------------|


| b  bend
| r  release bend
|trp triplet
|PH. pinch harmonic
|fbk feedback
| .  palm-mute
| /  slide up
| \  slide down
| h  hammer-on
| p  pull-off
| ~  vibrato
|(7) harmonic
| x  Mute note
===============================================================================    

Added On December 16th, 2013

SHARE

Comments

blog comments powered by Disqus

VERSIONS

ADVERTISEMENT