A Day To Remember Tabs

If I Leave

1 versions

TAB

            ----------------------------------------------------------------
If I Leave - A Day to Remember
----------------------------------------------------------------
Tabbed by:Raymond
Email:dirtdogr7@aol.com

Tuning:Drop D


0:01-0:18
e|---------------------------------------------------------------|
B|---------------------------------------------------------------|
G|---9---9---9-9-9-----------------------------------------------|
D|--7---7---7-7-7-7----------------------------------------------| 
A|-9---5---0-0-0-------------------------------------------------|
E|---------------------------------------------------------------|

0:06-0:07
e|---------|
B|---------|
G|---------|
D|-2-2-2-2-|
A|-2-2-2-2-|
E|-2-2-2-2-|
   X X X X

0:08-0:18
e|---------------------------------------------------------------|
B|---------------------------------------------------------------|
G|---------------------------------------------------------------|
D|-4-4-4-0-0-0-7-7-7-7-7-7-2-2-2-2-------------------------------|
A|-4-4-4-0-0-0-7-7-7-7-7-7-2-2-2-2-------------------------------|
E|-4-4-4-0-0-0-7-7-7-7-7-7-2-2-2-2-------------------------------|
  

| /  slide up
| \  slide down
| h  hammer-on
| p  pull-off
| ~  vibrato
| +  harmonic
| x  Mute note    

Added On December 16th, 2013

SHARE

Comments

blog comments powered by Disqus

ADVERTISEMENT