Aequitas Tabs

A Leap Into The Dark

1 versions

TAB

            [Capo 1]

[Key: Bbm]



[Intro]



   Am                         F

|-----------|------------|------------|------------|
|-1-0--1----|-3-1-0-1-xx-|-1-0--1-----|-3-1-0-1-xx-|
|-2-2--2----|-2-2-2-2-xx-|-2-2--2-----|-2-2-2-2-xx-|
|-2-2--2----|-2-2-2-2-xx-|-3-3--3-3-3-|-3-3-3-3-xx-|
|--x-x--x-x-|--x-x-x--xx-|--x-x-------|--x-x-x--xx-|
|-----------|------------|------------|------------|
                                  P.M.

   Dm                         C             E7

|-1-0-1----|-3-1-0-1-xx--|--------------|----------|
|-3-3-3----|-3-3-3-3-xx--|-1-x-3-x-1-xx-|---3-3----|
|-2-2-2----|-2-2-2-2-xx--|-0-x-0-x-0-xx-|---1-1----|
|--x-x-0-0-|--x-x-x--xx--|-2-x-2-x-2-xx-|---0-0----|
|----------|-------------|-3-x-3-x-3-xx-|---2-2----|
|----------|-------------|--------------|-0--------|

       P.M.                              P.M.



[VERSE]



Am

Set sail, the sea is open

F

Whatever path you've chosen

Dm

Your craft may shake and sway

     C                   E7

But you gotta make your way



There is no destination

Give way to all temptations

Move out and leave the bay

Upon the break of day



[CHORUS]



Am       Dm           C        F   G E

Sailing away into the endless sea

Am           Dm           C      G E

Burning the pieces of the ark

Am       Dm          C   F      G E

Sailing away into infinity

Am       Dm             C      G E Am

Taking a leap into the dark



[VERSE]



Set sail, the sea is open

And though your will is broken

Don't rest and wait

Until the water turns to sand



There is no destination

Just your determination

Don't rest and wait

Fortuna's wheel lies in your hands



[BRIDGE]



Dm  Am             E     Am

Dive and hit the ocean floor

Dm  Am            E    Am

Rise and float forevermore

Dm  Am         E    Am

Die today and be reborn

         Dm        E7

And live on ...



[CHORUS]



Sailing away into the endless sea

Burning the pieces of the ark

Sailing away into infinity

Taking a leap into the dark



[SOLO CHORDS]



Am Dm C E



Am Dm C G E    

Added On December 16th, 2013

SHARE

Comments

blog comments powered by Disqus

ADVERTISEMENT