Akira Yamaoka Tabs

Promise

4 versions

TAB

            -------------------------------------------------------------------------------
			     Promise - Akira Yamaoka
-------------------------------------------------------------------------------
Tabbed by: Gunsnroses78963
Email:

Tuning: Standard

This was the first whole song that I learned, I hope the tab isn't too confusing

Rhythm Guitar
e|---------------------------------------------------------------------------|
B|---------1-----------1----------1-----------0------------------------------|
G|-----------------------------------------0-----0---------------------------|
D|------2-----2-----3----3-----2-----2--0------------------------------------|    
A|---0-----------0----------3------------------------------------------------|
E|---------------------------------------------------------------------------|   

(x4)

Lead Guitar

e|--10--12-------15----------------12----------------------------|
B|-------------------13--------10-----------13-------------------|
G|----------------------------------------------12---------------|
D|---------------------------------------------------------------|
A|---------------------------------------------------------------|
E|---------------------------------------------------------------|


e|-------------------------------------------------------------------------------------------------|
B|-------------------------------------------------------------------------------13--13--12--------|
G|---12--12--12\10--9-----------------------------------12--12--12/14--12--------------------12----|
D|--------------------------12--12--14--12\10--10--------------------------------------------------|
A|-------------------------------------------------------------------------------------------------|
E|-------------------------------------------------------------------------------------------------|


e|-------------------------------------------------------------------------------------------|
B|-------------------------------------------------------------------------------13--13--12--|
G|---12--12--12\10--9-----------------------------------12--12--12/14--12--------------------|
D|--------------------------12--12--14--12\10--10--------------------------------------------|
A|-------------------------------------------------------------------------------------------|
E|-------------------------------------------------------------------------------------------|


e|------------------------------------------------------------------------------|
B|--13--12--10--12--13--15--13--12--13--12--10--12--13--12--13--15--13--15--17--|
G|------------------------------------------------------------------------------|
D|------------------------------------------------------------------------------|
A|------------------------------------------------------------------------------|
E|------------------------------------------------------------------------------|

e|--------------------------------------------------------------------------------|
B|--13--12--10--12--13--15--13--12--13--12--10--12--13--12--13--15--13--15--17--10|
G|--------------------------------------------------------------------------------|
D|--------------------------------------------------------------------------------|
A|--------------------------------------------------------------------------------|
E|--------------------------------------------------------------------------------|

------------------
Repeat Rhythm x2
------------------
Play Lead Again
------------------


e|--------3--0-----|
B|-----0-----------|
G|-----------------|
D|-----------------|   (x4)
A|-----------------|
E|-----------------|


e|-------------------------------------------------------------------------------------------|
B|-------------------------------------------------------------------------------------------|
G|---------9--11--12-----------11--9--11--12--------11--9--11--12----------9--11--12---11----|
D|------9---------------------------------------------------------------9--------------------|
A|-------------------------------------------------------------------------------------------|
E|-------------------------------------------------------------------------------------------|

(x3)



e|--------3--0-----|
B|-----0-----------|
G|-----------------|
D|-----------------|   (x4)
A|-----------------|
E|-----------------|

-----------------------------
Repeat Rhythm 4 Time
-----------------------------
Gradually Slow Down 4th Time
-----------------------------

End With

e|--------0------------------------------|
B|-------0-------------------------------|
G|------2--------------------------------|
D|-----2---------------------------------|
A|----0----------------------------------|
E|---0-----------------------------------|


| /  slide up
| \  slide down
| h  hammer-on
| p  pull-off
| ~  vibrato
| +  harmonic
| x  Mute note
===============================================================================    

Added On December 16th, 2013

SHARE

Comments

blog comments powered by Disqus

VERSIONS

ADVERTISEMENT