Akira Yamaoka Tabs

Sacred Land Of Maneton

1 versions

TAB

            First part from 00:32 to 00:59

  1.   |2.3.4
|-----|--------------------------------------------------------|
|-----|--------------------------------------------------------|
|-----|--------------------------------------------------------|
|-23--|23~-----------------------------------------------------|
|-----|--------------------------------------------------------|
|-----|--------------------------------------------------------|
|
|-------------------------------------------------------------|
|-------------------------------------------------------------|
|-3---------6---------8---------10----------------------------|
|-3---------6---------8---------10----------------------------|
|-1---------4---------6---------8-----------------------------|
|-------------------------------------------------------------|

Bridge part 1 from 00:59 to 01:40
(strings)
|-------------------------------------------------------------|
|-------------------------------------------------------------|
|-------------------------------------------------------------|
|------------3------------------------------------------------|
|-8----------5-------------------4----------------------------|
|----------------------8---------6----------------------------|
Bridge part 2 from 01:40 to 01:57
|-------------------------------------------------------------|
|-------------------------------------------------------------|
|-5---------6---------8---------10----------------------------|
|-5---------6---------8---------10----------------------------|
|-3---------4---------6---------8-----------------------------|
|-------------------------------------------------------------|

Second part from 01:57 to the end
 1.   |2.3.4
|-----|--------------------------------------------------------|
|-----|--------------------------------------------------------|
|-----|--------------------------------------------------------|
|-23--|23~-----------------------------------------------------|
|-----|--------------------------------------------------------|
|-----|--------------------------------------------------------|
|
|-------------------------------------------------------------|
|-------------------------------------------------------------|
|-5---------6---------8---------10----------------------------|
|-5---------6---------8---------10----------------------------|
|-3---------4---------6---------8-----------------------------|
|-------------------------------------------------------------|    

Added On December 16th, 2013

SHARE

Comments

blog comments powered by Disqus

ADVERTISEMENT