Alesana Tabs

Apology

9 versions

TAB

            Apology Tab by Alesana


ALESANA - APOLOGY

WELL GUYS ITS ME AGAYN WITH MORE OF ALESANA JE, THIS SONG ITS EASY BUT ITS AN AWSOME 
DROP D# AND THIS IS THE FIRS VERSION OF THE SONG

INTRO
SWEAT DRIPS IN ......
|------6------6-----|
|--8-6----8-6-------|
|-------------------| [x18]
|-------------------|
|-------------------|
|-------------------|

VERSE
TO MEE!!! NO MORE AS...
|----------------|      /
|----------------|      /
|--5-0-7-0-8-----| [x7] /
|----------------|      /
|----------------|      /
|----------------|      /
                        /  [x3]
|----------------|      /
|--6-------------|      /
|----8-7---------|      /
|----------------|      /
|----------------|      /
|----------------|      /

|----------------|
|----------------|
|--5-0-7-0-8-----| [x7]
|----------------|
|----------------|
|----------------|

AND TO THINK THAT .....

|----------------|      |---------|
|----------------|      |--6------|
|--5-0-7-0-8-----| [x7] |----8-7--|
|----------------|      |---------|
|----------------|      |---------|
|----------------|      |---------|

                        "THIS IS THE END"
|----------------|      |----------|
|----------------|      |--------6-|
|--5-0-7-0-8-----| [x7] |--5-7-8---|
|----------------|      |----------|
|----------------|      |----------|
|----------------|      |----------|

CHORUS
I'LL LOSE MYSELF...
|------6-----------6-------------6---------6---------6---------6------|
|--------9-8-6-------9-8-6--6-8-9-9-8-6-8-9-9-8-6-8-9-9-8-6-8-9-9-8-6-|
|--5-8---------5-8----------------------------------------------------|
|---------------------------------------------------------------------| [x2]
|---------------------------------------------------------------------|
|---------------------------------------------------------------------|

I FEEL SO NUMB..
|------6-----------6-------------|
|--------9-8-6-------8-9-8-6-6---|
|--5-8---------5-8---------------|
|--------------------------------|
|--------------------------------|
|--------------------------------|

VERSE
TO SEE THIS ...
|----------------|      /
|----------------|      /
|--5-0-7-0-8-----| [x7] /
|----------------|      /
|----------------|      /
|----------------|      /
                        /  [x3]
|----------------|      /
|--6-------------|      /
|----8-7---------|      /
|----------------|      /
|----------------|      /
|----------------|      /

|----------------|       |--------------|
|----------------|       |--------------|
|--5-0-7-0-8-----| [x7]  |---8---7---0--|
|----------------|       |---8---7---0--|
|----------------|       |---6---5------|
|----------------|       |--------------|


CHORUS
I'LL LOSE MYSELF...
|------6-----------6-------------6---------6---------6---------6------|
|--------9-8-6-------9-8-6--6-8-9-9-8-6-8-9-9-8-6-8-9-9-8-6-8-9-9-8-6-|
|--5-8---------5-8----------------------------------------------------|
|---------------------------------------------------------------------| [x4]
|---------------------------------------------------------------------|
|---------------------------------------------------------------------|

INTRO
|------6------6-----|
|--8-6----8-6-------|
|-------------------| [x6]
|-------------------|
|-------------------|
|-------------------|

URGENCY!!!!
|----------------|      |---------|
|----------------|      |--6------|
|--5-0-7-0-8-----| [x3] |----8-7--|
|----------------|      |---------|
|----------------|      |---------|
|----------------|      |---------|

|----------------|      |-------------|
|----------------|      |--------6//--|
|--5-0-7-0-8-----| [x9] |--5-7-8------|
|----------------|      |-------------|
|----------------|      |-------------|
|----------------|      |-------------|

BRIDGE
|-----------------------------------------------------|
|-----------------------------------------------------|
|--5-5-5--5--5---5-5-5--5--5---5-5-5--5--5---5-5-5----|
|--5-5-5--5--5---5-5-5--5--5---5-5-5--5--5---5-5-5----|
|--3-3-3--3--3---3-3-3--3--3---3-3-3--3--3---3-3-3----|
|-----------------------------------------------------|

|---------------------------------------------------------|
|---------------------------------------------------------|
|--7-7-7-7-7-7-8-8-8-8-8-8-10-10-10-10-10-10-8-8-8-8-8-8--|
|--X-X-X-X-X-X-X-X-X-X-X-X-X--X--X--X--X--X--X-X-X-X-X-X--|
|--5-5-5-5-5-5-6-6-6-6-6-6-8--8--8--8--8--8--6-6-6-6-6-6--|
|---------------------------------------------------------|

|-------------------------------------------------------|
|-------------------------------------------------------|
|--5-5-5-5-5-5-7-7-7-7-7-7-8-8-8-8-8-8-7-7-7-7-7-7------|
|--X-X-X-X-X-X-X-X-X-X-X-X-X-X-X-X-X-X-X-X-X-X-X-X------|
|--3-3-3-3-3-3-5-5-5-5-5-5-6-6-6-6-6-6-5-5-5-5-5-5------|
|-------------------------------------------------------|

|-----------------------------------|
|-----------------------------------|
|--4-4-4-4-4-4-5-5-5-5-5-7-7-7-7----|
|--X-X-X-X-X-X-X-X-X-X-X-X-X-X-X----|
|--2-2-2-2-2-2-3-3-3-3-3-5-5-5-5----|
|-----------------------------------|

|---------------------------------------------------------|
|---------------------------------------------------------|
|--7-7-7-7-7-7-8-8-8-8-8-8-10-10-10-10-10-10-8-8-8-8-8-8--|
|--X-X-X-X-X-X-X-X-X-X-X-X-X--X--X--X--X--X--X-X-X-X-X-X--|
|--5-5-5-5-5-5-6-6-6-6-6-6-8--8--8--8--8--8--6-6-6-6-6-6--|
|---------------------------------------------------------|

|----------------------------------------------------------|
|----------------------------------------------------------|
|--5-5-5-5-5-5-7-7-7-7-7-7-8-8-8-8-8-8-10-10-10-10-10-10---|
|--X-X-X-X-X-X-X-X-X-X-X-X-X-X-X-X-X-X-X--X--X--X--X--X----|
|--3-3-3-3-3-3-5-5-5-5-5-5-6-6-6-6-6-6-8--8--8--8--8--8----|
|----------------------------------------------------------|

|---------------------------------------------------------|
|---------------------------------------------------------|
|--7-7-7-7-7-7-8-8-8-8-8-8-10-10-10-10-10-10-8-8-8-8-8-8--|
|--X-X-X-X-X-X-X-X-X-X-X-X-X--X--X--X--X--X--X-X-X-X-X-X--|
|--5-5-5-5-5-5-6-6-6-6-6-6-8--8--8--8--8--8--6-6-6-6-6-6--|
|---------------------------------------------------------|

|----------------------|
|----------------------|
|--4-4-4-4-4-4-4-4-----|
|--X-X-X-X-X-X-X-X-----|
|--2-2-2-2-2-2-2-2-----|
|----------------------|

CHORUS
I'LL LOSE MYSELF...
|------6-----------6-------------6---------6---------6---------6------|
|--------9-8-6-------9-8-6--6-8-9-9-8-6-8-9-9-8-6-8-9-9-8-6-8-9-9-8-6-|
|--5-8---------5-8----------------------------------------------------|
|---------------------------------------------------------------------| [x4]
|---------------------------------------------------------------------|
|---------------------------------------------------------------------|

OUTRO
               "IN MY MIND"
|------6-----------6----------------6-----------6----|
|--------9-8-6-------8-9-8-6-6--------9-8-6----------|
|--5-8---------5-8--------------5-8---------5-8------|
|----------------------------------------------------|
|----------------------------------------------------|
|----------------------------------------------------|

|------6-----------6----------------6-----------------------------|
|--------9-8-6-------8-9-8-6-6--------9-8-6-----------------------|
|--5-8---------5-8--------------5-8---------------------------5---|
|---------------------------------------------5-5-5-5-5-5-----5---|
|---------------------------------------------5-5-5-5-5-5-----3---|
|---------------------------------------------3-3-3-3-3-3---------|
                                              . . . . . .

THATS ALL, YEAH ITS EASY, CHECK HOW IT SOUND ON:

http://www.youtube.com/watch?v=PRA-gWFTdYw

THANX   FREAKY WI^_^!!!!    

Added On December 4th, 2013

SHARE

Comments

blog comments powered by Disqus