Alesana Tabs

Not A Single Word About This

2 versions

TAB

            Not A Single Word About This Tab by Alesana


ALESANA - NOT A SINGLE WORD ABOUT THIS

WELL THIS IS THE TAB, DROP D#, ^_^

INTRO
I PUSH YOU AWAY...
|---------------------------------------------------------11-----|
|--9-----9-----8-9-8-9-9-----9-----9-8-6---9---9---9---9---------|
|----8-----8-------------6-----6---------8---8---8---8-----------|
|------6-----6-------------6-----6-------------------------------|
|----------------------------------------------------------------|
|----------------------------------------------------------------|

|------------------------------------------------------------------------------|
|--9-----9-----8-9-8-9-9-----9-----9-8-6---9---9---9-9-8-6---8---8---8-6-8-9--|
|----8-----8-------------6-----6---------8---8---8---------8---8---8-----------|
|------6-----6-------------6-----6---------------------------------------------|
|------------------------------------------------------------------------------|
|------------------------------------------------------------------------------|

|--------------------------------------------|
|--9-----9-----8-9-8-9-9-----9-----9-8-6-----|
|----8-----8-------------6-----6-------------|
|------6-----6-------------6-----6-----------|
|--------------------------------------------|
|--------------------------------------------|

VERSE
I CAN'T HELP BELIVING
|--------------------11------------11------------11------------11--------|
|-----9----8--11-9-8----9-8-11-9-8----9-8-11-9-8----9-8-11-9-8----9-8----|
|--8----8----------------------------------------------------------------|
|------------------------------------------------------------------------|
|------------------------------------------------------------------------|
|------------------------------------------------------------------------|

SAY YOU'LL STAY
|--------------------11------------11------------11------------11------|
|-----9----8--11-9-8----9-8-11-9-8----9-8-11-9-8----9-8-11-9-8---------|
|--8----8--------------------------------------------------------------|
|----------------------------------------------------------------------|
|----------------------------------------------------------------------|
|----------------------------------------------------------------------|

CHORUS
I PUSH YOU AWAY....
|------------------------------------------------------------------------------|
|--9-----9-----8-9-8-9-9-----9-----9-8-6---9---9---9-9-8-6---8---8---8-6-8-9--|
|----8-----8-------------6-----6---------8---8---8---------8---8---8-----------|
|------6-----6-------------6-----6---------------------------------------------|
|------------------------------------------------------------------------------|
|------------------------------------------------------------------------------|

|---------------------------------------------------------------------------8--|
|--9-----9-----8-9-8-9-9-----9-----9-8-6---9---9---9-9-8-6---8---8---9-11-9----|
|----8-----8-------------6-----6---------8---8---8---------8---8---8-----------|
|------6-----6-------------6-----6---------------------------------------------|
|------------------------------------------------------------------------------|
|------------------------------------------------------------------------------|

VERSE
I STARE BLINDLY....
|-------------------------------11------------11------------11------------11--------|
|-----9--9-8-6--9-8-6//--11-9-8----9-8-11-9-8----9-8-11-9-8----9-8-11-9-8----9-8------|
|--8-----------8----------------------------------------------------------------------|
|-------------------------------------------------------------------------------------|
|-------------------------------------------------------------------------------------|
|-------------------------------------------------------------------------------------|

THAT I  CANNOT....
|-------------------------------11------------11------------11------------11--------|
|-----9--9-8-6--9-8-6//--11-9-8----9-8-11-9-8----9-8-11-9-8----9-8-11-9-8-------------|
|--8-----------8----------------------------------------------------------------------|
|-------------------------------------------------------------------------------------|
|-------------------------------------------------------------------------------------|
|-------------------------------------------------------------------------------------|

I CAN'T SEE...
|------------------------------------------------------------------------|
|--9---9---9---9---9---9---9---9---9---9---9---9---9---9---9---9---9-----|
|----8---8---8---8---8---8---8---8---8---8---8---8---8---8---8---8---8---|
|------------------------------------------------------------------------|
|------------------------------------------------------------------------|
|------------------------------------------------------------------------|
   . . . . . . . . . . . . . . . . . . . . . . . . . . . . . . . . . .

SHACKLES CUT MY....
|--------------------------------------------------------------|
|--------------------------------------------------------------|
|--10-10-10-10-10-12-12-13-13-12-12-12-12-12-13-13-15-15-------|
|--X--X--X--X--X--X--X--X--X--X--X--X--X--X--X--X--X--X--------|
|--8--8--8--8--8--10-10-11-11-10-10-10-10-10-11-11-13-13-------|
|--------------------------------------------------------------|

|--------------------------------------------------------------|
|--------------------------------------------------------------|
|--13-13-13-13-13-15-15-17-17-15-15-15-15-15-17-17-18-18-------|
|--X--X--X--X--X--X--X--X--X--X--X--X--X--X--X--X--X--X--------|
|--11-11-11-11-11-13-13-15-15-13-13-13-13-13-15-15-16-16-------|
|--------------------------------------------------------------|

CHORUS
I PUSH YOU AWAY....
|------------------------------------------------------------------------------|
|--9-----9-----8-9-8-9-9-----9-----9-8-6---9---9---9-9-8-6---8---8---8-6-8-9--|
|----8-----8-------------6-----6---------8---8---8---------8---8---8-----------|
|------6-----6-------------6-----6---------------------------------------------|
|------------------------------------------------------------------------------|
|------------------------------------------------------------------------------|

|---------------------------------------------------------------------------8--|
|--9-----9-----8-9-8-9-9-----9-----9-8-6---9---9---9-9-8-6---8---8---9-11-9----|
|----8-----8-------------6-----6---------8---8---8---------8---8---8-----------|
|------6-----6-------------6-----6---------------------------------------------|
|------------------------------------------------------------------------------|
|------------------------------------------------------------------------------|

(GUITAR CLEAN)
|--8----------------11---11---11---11---11---11---11---11-----|
|----11-9---9-8----9----9----8----8----9----9----8----8-------|
|-------------------------------------------------------------|
|-------------------------------------------------------------|
|-------------------------------------------------------------|
|-------------------------------------------------------------|

IN A ROOM WHEN...
|----------------------------------------------------------------------|
|----------------------------------------------------------------------|
|----------------------------------------------------------------------|
|--6-6-6-6-6-6-6-6-5-5-5-5-5-5-5-5-5-6-6-6-6-6-6-6-6-6-6-6-6-6-6-6-6---|
|----------------------------------------------------------------------|
|----------------------------------------------------------------------|
   . . . . . . . . . . . . . . . . . . . . . . . . . . . . .

ONCE BEHOLDEN
|------------------------------------------------------------------|
|------------------------------------------------------------------|
|------------------------------------------------------------------|
|--8-8-8-8--8-8-8-8--10-10-10-10--10-10-10-10--6-6-6-6--6-6-6-6----|
|--8-8-8-8--8-8-8-8--10-10-10-10--10-10-10-10--6-6-6-6--6-6-6-6----|
|--6-6-6-6--6-6-6-6--8--8--8--8---8--8--8--8---4-4-4-4--4-4-4-4----|

IT THAT I                        AM SLAVE TO
|-------------------8-------|  |---------------9-----------|
|--8-9-11-9-8-8-8-9---11-8--|  |--9-0-11-0-9-0---0-11-0-9--|
|---------------------------|  |---------------------------| [x6]
|---------------------------|  |---------------------------|
|---------------------------|  |---------------------------|
|---------------------------|  |---------------------------|

|---------------------------------------|
|---------------------------------------|
|---8--------8---------8---------8//----|
|---8--------8---------8---------8//----|
|---6--------6---------6---------6//----|
|---------------------------------------|

OUTHRO
ITS BECAUSE
|------------------------|
|------------------------|
|----------8-------------| [x8]
|--6-6-8-6---6-6-8-6-6---|
|------------------------|
|------------------------|

|------------------------|
|----------9---------9---|
|------------------------| [x4]
|--6-6-8-6---6-6-8-6-----|
|------------------------|
|------------------------|

|------------------------|      |--------|
|------------------------|      |--------|
|----------8-------------| [x7] |--------|
|--6-6-8-6---6-6-8-6-6---|      |--3-3---|
|------------------------|      |--3-3---|
|------------------------|      |--1-1---|


AND THATS ALL THE TAB, ENJOY IT

THANXX FREAKY WI ^_^!!!!    

Added On December 4th, 2013

SHARE

Comments

blog comments powered by Disqus

VERSIONS

ADVERTISEMENT