Alexz Johnson Tabs

Another Thin Line

2 versions

TAB

            Artist: Alexz Johnson
Song: Another Thin Line
Album: Soundtrack from Instant Star 2
Tabbed By: Adrian Oczoś aka fredi

Song tunning is EBGDAD

Intro

E|------------------------------------|
B|------------------------------------|
G|------------------------------------|
D|------------------------------------|
A|------------------------------------|
D|-8-8-8-8-8-8-8-88-7-7-7-7-7-7-10-10-|

E|----------------------------------------------------------------------|
B|----------------------------------------------------------------------|
G|----------------------------------------------------------------------| x2
D|----------------------------------------------------------------------|
A|----------------------------------------------------------------------|
D|-5-5-5-5-5-5-5-5-5-5-5-5-7-7-10-10-8-8-8-8-8-8-8-88-7-7-7-7-7-7-10-10-|

1st Verse

E|-----------------------------------------|
B|-----------------------------------------|
G|-----------------------------------------| x2
D|----10---------10------10-----10------10-|
A|-10---------12----13-------12------13----|
D|-----------------------------------------|

Before 1st Chorus

E|--------------------------------------------|
B|--------------------------------------------|
G|-------------------------------------7------|
D|-1-----5-----1-----5-----1-----5-----7[x16]-|
A|-1[x8]-5[x8]-1[x8]-5[x8]-1[x8]-5[x8]-5------|
D|-1-----5-----1-----5-----1-----5------------|

1st Chorus

E|-------------------------|
B|-------------------------|
G|-------8-----3-----------| x2
D|-5-----8[x8]-3[x8]-3-----|
A|-5[x8]-6-----1-----3[x8]-|
D|-5-----------------3-----|

After 1st Chorus

E|--------------------------------------|
B|-----------------13-11-------10-------|
G|-12-----------14----------------------|
D|--------------------------------------|
A|--------------------------------------|
D|--------------------------------------|

2nd Verse

E|-----------------------------------------|
B|-----------------------------------------|
G|-----------------------------------------| x2
D|----10---------10------10-----10------10-|
A|-10---------12----13-------12------13----|
D|-----------------------------------------|

Before 2nd Chorus

E|--------------------------------------------|
B|--------------------------------------------|
G|-------------------------------------7------|
D|-1-----5-----1-----5-----1-----5-----7[x16]-|
A|-1[x8]-5[x8]-1[x8]-5[x8]-1[x8]-5[x8]-5------|
D|-1-----5-----1-----5-----1-----5------------|

2nd Chorus

E|-------------------------|
B|-------------------------|
G|-------8-----3-----------| x4
D|-5-----8[x8]-3[x8]-3-----|
A|-5[x8]-6-----1-----3[x8]-|
D|-5-----------------3-----|

Bridge

E|-----------------------------------|------------------------------------|
B|-----------------------------------|------------------------------------|
G|-5------7-----8--------------------|-5------7-----8-----------------8---|
D|-5[x14]-7[x2]-8[x16]-5------3------|-5[x14]-7[x2]-8[x16]-5------3---8---|
A|-3------5-----6------5[x16]-3[x16]-|-3------5-----6------5------3---6---|
D|---------------------5------3------|---------------------5------3-------|

After Bridge

E|----------------------|
B|-15-----16-----15-----|
G|----------------------|
D|----------------------|
A|----------------------|
D|----------------------|

3rd Chorus

E|-------------------------|
B|-------------------------|
G|-------8-----3-----------| x4
D|-5-----8[x8]-3[x8]-3-----|
A|-5[x8]-6-----1-----3[x8]-|
D|-5-----------------3-----|

Outro

E|----------------------------------------------------------------------|
B|----------------------------------------------------------------------|
G|----------------------------------------------------------------------| x3
D|----------------------------------------------------------------------|
A|----------------------------------------------------------------------|
D|-5-5-5-5-5-5-5-5-5-5-5-5-7-7-10-10-8-8-8-8-8-8-8-88-7-7-7-7-7-7-10-10-|    

Added On December 16th, 2013

SHARE

Comments

blog comments powered by Disqus

VERSIONS

ADVERTISEMENT