Alexz Johnson Tabs

Criminal

1 versions

TAB

            Criminal Tab by Alexz Johnson


Alexz Johnson - Criminal


Tuning: EADGBe


Intro:

|-----------------|-----------------|-----------------|-----------------|
|-----------------|-----------------|-----------------|-----------------|
|-----------------|-----------------|-----------------|-----------------|
|-----------------|-----------------|-----------------|-----------------|
|--2--4--2--244-2-|--2--4--2--244-2-|--2--4--2--244-2-|--2--4--2--244-2-|
|-4--4--4--4------|-4--4--4--4------|-4--4--4--4------|-4--4--4--4------|


Verse:

|-----4-------4---|-----4-------4---|-----0-------0---|-----0-------0---|
|--5----5--5----5-|--4----4--4----4-|--2----2--2----2-|--2----2--2----2-|
|-4--4----4--4----|-4--4----4--4----|-4--4----4--4----|-2--2----2--2----|
|-2---------------|-2---------------|-2---------------|-2---------------|
|-2---------------|-2---------------|-0---------------|-0---------------|
|-----------------|-----------------|-----------------|-----------------|

I won't deny, I faked it
Don't wanna lie, I'm jaded
I wanna scream when inside I'm breaking down
I've left the stone I was under
I'm running home, you won't find her
She walks alone all through this broken town


Chorus:

|-----------------|-----------------|-----------------|-----------------|
|-----------------|-----------------|-----------------|-----------------|
|-6-6-6-6-6-6-6-6-|-----------------|-----------------|---------4-4-4-4-|
|-6-6-6-6-6-6-6-6-|-6-6-6-6-6-6-6-6-|-7-7-7-7-7-7-7-7-|-2-2-2-2-4-4-4-4-|
|-4-4-4-4-4-4-4-4-|-6-6-6-6-6-6-6-6-|-7-7-7-7-7-7-7-7-|-2-2-2-2-2-2-2-2-|
|-----------------|-4-4-4-4-4-4-4-4-|-5-5-5-5-5-5-5-5-|-0-0-0-0---------|

Goin' the wrong way down a one way street
Where the feeling is criminal
Nobody helps me out when I bleed
Just a look, look, looking for someone like me
Where the feeling is mutual
Can anybody see what I see
Cuz I don't see me


Verse:

I blow away the ashes
I clear his face to look at it
He stole my name while I waited lost and found
I found a place where I'll keep you
Cuz I won't live through you or beneath you
I walk this way where these winds won't bring me down


Chorus:

Goin' the wrong way down a one way street
Where the feeling is criminal
Nobody helps me out when I bleed
Just a look, look, looking for someone like me
Where the feeling is mutual
Can anybody see what I see
Cuz I don't see me don't


Bridge:

|-----------------|-----------------|-----------------|-----------------|
|-----------------|-----------------|-----------------|-----------------|
|-6---------------|-----------------|-----------------|-4---------------|
|-6---------------|-6---------------|-2---------------|-4---------------|
|-4---------------|-6---------------|-2---------------|-2---------------|
|-----------------|-4---------------|-0---------------|-----------------|

Let me be
Stayin at all
Don't waste it on me
Cuz if I take a chance
And if I hurt again
And if I let you in
Be my reckoning
Ooo, hey!


Chorus:

Goin' the wrong way down a one way street
Where the feeling is criminal
Nobody helps me out when I bleed
Just a look, look, looking for someone like me
Where the feeling is mutual
Can anybody see what I see
Cuz I don't see me    

Added On December 4th, 2013

SHARE

Comments

blog comments powered by Disqus

ADVERTISEMENT