Alice Cooper Tabs

Cleansed By Fire Intro

1 versions

TAB

            Band: Alice Cooper
Song: Cleansed By Fire
Album: The Last Temptation
Year: 1994
Tabbed by DoteStudios
Email is manbearpigisreal@gmail.com

E---------------------------------------------------------------------|
B-----8---8---8-------8-10-8----8-------8-10-8----8--------8-10-8-----|
G---------------9-----------------9-----------------9-----------------|
D---9---9---9------10--------10------11--------11-------10------------|
A---------------------------------------------------------------------|
E-0-------------------------------------------------------------------|

E---------------------------------------------------------------------|
B---8---8---8-------8-10-8----8-------8-10-8----8--------8-10-8----8--|
G-------------9-----------------9-----------------9------------------9|
D-9---9---9------10--------10------11--------11-------10--------10----|
A---------------------------------------------------------------------|
E---------------------------------------------------------------------|

E---------------------------------------------------------------------|
B------9------------------9-------------------9-------------------9---|
G---11---11---11-9-----11---11----11-9-----11---11----11-9-----11---11|
D-9---------9-------10---------10-------11---------11-------10--------|
A---------------------------------------------------------------------|
E---------------------------------------------------------------------|

E----------|
B----------|
G----11-9--|
D-10-------|
A----------|
E----------|    

Added On December 16th, 2013

SHARE

Comments

blog comments powered by Disqus

ADVERTISEMENT