Alice Cooper Tabs

Im Eighteen

6 versions

TAB

            Im Eighteen Tab by Alice Cooper


#----------------------------------PLEASE NOTE---------------------------------#
#This file is the author's own work and represents their interpretation of the #
#song. You may only use this file for private study, scholarship, or research. #
#------------------------------------------------------------------------------#
#
ALICE COOPER
I'm eighteen

All fills and the solo goes on the E blues-scale. They look hard,
but they're really easy, 'cos I've been playing guitar for just 6 months,
and I got all these (except the main riff) just by listening to the record !
The chords in the verse goes like: E, C, D and C, D.
There's also an A, B, C, and D part, but it's marked on the lyrics.

Main Riff
     E5                              C5              D5
|------------------------------|-----------------------------------|
|------------------------------|-----------------------------------|
|------------------------------|----------5-----------------7------|
|--2-----2---------------------|------5----------------7--------7--|
|--2-----2------------------0--|-3----------------5----------------|
|--0-----0-----0---0--2---3----|-----------------------------------|

Fill 1:
|----------------------------------------------------------------------------|
|-15b--15b--15b--15b---------------------------------------------------------|
|----------------------------------------12-14-14b-14b-14b-14b-14b^12-12-----|
|----------------------------------12-14----------------------------------14-|
|----------------------------12-14-------------------------------------------|
|----------------------12-15-------------------------------------------------|

    Lines form on my face and hands
    Lines form from the ups and downs
    I'm in the middle without any plans
    I'm a boy and I'm a man

         Main Riff
    I'm Eighteen and I don't know what I want - Eighteen I just don't know
    what I want - Eighteen I gotta get away

 A5                  B5                   C5                D5
    I've got to get out of this place - I'll go running in outer space again !

Fill 2:
|-------------------------------------|
|-------------------------------------|
|--14b---14^12----14b--14b-14--12-----|
|-------------^14-----------------14--|
|-------------------------------------|
|-------------------------------------|

    I've got an baby's brain and an old man's heart
    Took 18 years to get this far
    Don't always know what I'm talkin' about
    Feels like I'm living in a middle of doubt - 'Cos I'm

     Main Riff
    Eighteen I get confuzed every day - Eighteen I just don't know what to say
    Eighteen I got to get away !

Solo:
|-----------------------------------------------------------------------|
|-----------------------------------------------------------------------|
|--14b----14b-14b-14b^12----14-12----14^12^14--14^12-14^12-14^12-14^12--|
|-----------------------^14-------14------------------------------------|
|-----------------------------------------------------------------------|
|-----------------------------------------------------------------------|

|------------------------------------------------------|
|-------------------------15b^12-----------------------|
|-14-14b--14-14b--14--14--------^14^12^14-14^14b-------|
|------------------------------------------------------|
|------------------------------------------------------|
|------------------------------------------------------|

    Lines form on my face and my hands
    Lines form on the left and right

Fill 3:                                          Fill 4:
|--------------------|                           |-------------|
|--------------------| I've been in the middle,  |-------------|
|--14b^14--12--------| the middle of life        |--14^14b-----|
|--------------14----|                           |-------------|
|--------------------|                           |-------------|
|--------------------|                           |-------------|

                                                  Main Riff
    I'm a boy and I'm a man - I'm Eighteen and I like it !
    Yes I like it !

Fill 5:                                  Fill 6:
|----------------|                       |---------------------------|
|-15b-15b-15b----| Oh, I like it,        |-15^12---------------------|
|----------------| I love it, I like it, |------^14--14-12-14~~~~~---|
|----------------|                       |---------------------------|
|----------------|                       |---------------------------|
|----------------|                       |---------------------------|
                                             I love it, Eighteen,
Eighteen,

Fill 7:
|---------------------------|
|---------------------------|
|-14~~~-12------------------| I'm not sure about the last note...
|----------14-12------------|
|----------------14-(12)----|
|---------------------------|
 Eighteen, Eighteen and I like it !

|---------------------------|
|---------------------------| These are the last three chords
|---5----7--------9---------|
|---5----7--------9---------|
|---3----5--------7---------|
|---------------------------|

P.S. If you have tabs to Emerald Eyes or Hummingbird by Jimmy Page, please
post to Nevada or to me.    

Added On December 4th, 2013

SHARE

Comments

blog comments powered by Disqus

VERSIONS

ADVERTISEMENT