Alice Cooper Tabs

Is It My Body

2 versions

TAB

            Song: Is It My Body
Band: Alice Cooper
Album: Love It To Death
Year: 1971
Tabbed by DoteStudios
Email is manbearpigisreal@gmail.com

Keys
b = bend
r = release
\ = slide up neck 
~ = hold note

Rhythm Guitar (Michael Bruce)
E-----------------------|
B-----------------------|
G---------2--3/4--4--2--| 2x
D-3/4--4--2--3/4--4--2--|
A-3/4--4--0--1/2--2--0--|
E-1/2--2----------------|

Then lead comes in…
Lead Guitar (Glen Buxton)
E-2------------|
B---2----------|
G-----6r4-2----|
D------------4-|
A--------------|
E--------------|
Hold the above rhythm part 
as a chord, and strum upwards 
(for every time its played)

“What have I got 
that makes you want to love me 
Is it my body 
or someone I might be 
or somethin' inside me”
Rhythm Guitar
E-----------------------|
B-----------------------|
G---------2--3/4--4--2--| 5x
D-3/4--4--2--3/4--4--2--|
A-3/4--4--0--1/2--2--0--|
E-1/2--2----------------|

“You better tell me 
Tell me 
It's really up to you 
Have you got the time to find out”
Lead Guitar
E-----------------------------------------------|
B-----------------------------------------------|
G------2-----------------------------------7~~~-|
D-4----2------------------------2-3--9--7--7~~~-|
A-4----0----2--3--4-5---2-3-4-5------9--7--5~~~-|
E-2-------------------3--------------7--5-------|

Rhythm Guitar
E------------------------------------------------------------------|
B------------------------------------------------------------------|
G------------------------------------------------------------------|
D-4-4-4-4-4-4-4-4-7-7-7-7-7-7-7-7-9-9-9-9-9-9-9-9-5-5-5-5-5-5-5-5--|
A-4-4-4-4-4-4-4-4-7-7-7-7-7-7-7-7-9-9-9-9-9-9-9-9-5-5-5-5-5-5-5-5--|
E-2-2-2-2-2-2-2-2-5-5-5-5-5-5-5-5-7-7-7-7-7-7-7-7-3-3-3-3-3-3-3-3--|

E----------------|
B----------------|
G-------7~~~-----|
D-9--7--7~~~-----|
A-9--7--5~~~-----|
E-7--5-----------|

“Who I really am”
Lead Guitar
E-------------------------------------------------2-----------|
B---------------------------------------------------2---------|
G-----------------------------------------------------6r4-----|
D-----------------------------------------------------------4-|
A-------------------------------------------------------------|
E-------------------------------------------------------------|

Rhythm Guitar
E-------------------------------------------------------------|
B-------------------------------------------------------------|
G-4b6r4-2---------2-4---4b6r4-2-------2-4-4b6r4-2-4b6r4-2-----|
D---------4---2-4---------------4-2-4-------------------------|
A-------------------------------------------------------------|
E-------------------------------------------------------------|

“What does it take 
to get inside of your mind 
Give me a break 
and take a chance for the very first time”
Lead and Rhythm Guitar
E---------------------------|
B---------------------------|
G-------------4--4-4-2------| 4x
D-4--4--4--4--4--4-----4-2--|
A-4--4--4--4--2--2----------|
E-2--2--2--2----------------|

“You better tell me 
Tell me 
It's really up to you 
Have you got the time to find out”
Lead Guitar
E-----------------------------------------------|
B-----------------------------------------------|
G------2-----------------------------------7~~~-|
D-4----2------------------------2-3--9--7--7~~~-|
A-4----0----2--3--4-5---2-3-4-5------9--7--5~~~-|
E-2-------------------3--------------7--5-------|

Rhythm Guitar
E------------------------------------------------------------------|
B------------------------------------------------------------------|
G------------------------------------------------------------------|
D-4-4-4-4-4-4-4-4-7-7-7-7-7-7-7-7-9-9-9-9-9-9-9-9-5-5-5-5-5-5-5-5--|
A-4-4-4-4-4-4-4-4-7-7-7-7-7-7-7-7-9-9-9-9-9-9-9-9-5-5-5-5-5-5-5-5--|
E-2-2-2-2-2-2-2-2-5-5-5-5-5-5-5-5-7-7-7-7-7-7-7-7-3-3-3-3-3-3-3-3--|

E----------------|
B----------------|
G-------7~~~-----|
D-9--7--7~~~-----|
A-9--7--5~~~-----|
E-7--5-----------|

“Who I really am”
Rhythm Guitar
E-----------------------------------|
B-----------------------------------|
G-4b6r4-2-------2-4-4b6r4-2-4b6r4-2-|
D---------4-2-4---------------------|
A-----------------------------------|
E-----------------------------------|

Solo
Lead Guitar
E------------------------------------------------------------------14-|
B-----------------14----14----14----14-----14-------------------------|
G-4b6~~~~~r4-2~~--16b18-16b18-16b18-16b18-----18r16--------14-16b18---|
D---------------------------------------------------14-16-------------|
A---------------------------------------------------------------------|
E---------------------------------------------------------------------|

E-------14-------14-------14--14----14----14----14----14----14---14---|
B-----------------------------17b19-17b19-17b19-17b19-17b19-17b9-17b19|
G-16b18----16b18----16b18---------------------------------------------|
D---------------------------------------------------------------------|
A---------------------------------------------------------------------|
E---------------------------------------------------------------------|

E-------17-19b21-19b21-19b21-19b21~~-|
B-17/19------------------------------|
G------------------------------------|
D------------------------------------|
A------------------------------------|
E------------------------------------|

Rhythm Guitar
E---------------------------------------|
B---------------------------------------|
G-4b6r4-2-------2-4-4b6r4-2-4b6r4-2-----| 4x
D---------4-2-4---------------------4-2-|
A---------------------------------------|
E---------------------------------------|

“What have I got 
that makes you want to love me 
Now is it my body 
or someone I might be 
or somethin' inside me”
Lead and Rhythm Guitar
E---------------------------|
B---------------------------|
G-------------4--4-4-2------| 6x
D-4--4--4--4--4--4-----4-2--|
A-4--4--4--4--2--2----------|
E-2--2--2--2----------------|

“You better tell me 
Tell me 
It's really up to you 
Have you got the time to find out 
Who I really am”
Lead Guitar
E-----------------------------------------------|
B-----------------------------------------------|
G------2-----------------------------------7~~~-|
D-4----2------------------------2-3--9--7--7~~~-|
A-4----0----2--3--4-5---2-3-4-5------9--7--5~~~-|
E-2-------------------3--------------7--5-------|

Rhythm Guitar
E------------------------------------------------------------------|
B------------------------------------------------------------------|
G------------------------------------------------------------------|
D-4-4-4-4-4-4-4-4-7-7-7-7-7-7-7-7-9-9-9-9-9-9-9-9-5-5-5-5-5-5-5-5--|
A-4-4-4-4-4-4-4-4-7-7-7-7-7-7-7-7-9-9-9-9-9-9-9-9-5-5-5-5-5-5-5-5--|
E-2-2-2-2-2-2-2-2-5-5-5-5-5-5-5-5-7-7-7-7-7-7-7-7-3-3-3-3-3-3-3-3--|

E----------------|
B----------------|
G-------7~~~-----|
D-9--7--7~~~-----|
A-9--7--5~~~-----|
E-7--5-----------|

“Who I really am”
Lead Guitar
E-------------------------------------------------2-------------------|
B---------------------------------------------------2-----------------|
G-----------------------------------------------------6r4-2-----------|
D---------------------------------------------------------------------|
A---------------------------------------------------------------------|
E---------------------------------------------------------------------|

Rhythm Guitar
E---------------------------------------------------------------------|
B---------------------------------------------------------------------|
G-4b6r4-2---------2-4---4b6r4-2-------2-4-4b6r4-2-4b6r4-2-------------|
D---------4---2-4---------------4-2-4---------------------------------|
A------------------------------------------------------------2b4~~~~r2|
E---------------------------------------------------------------------|    

Added On December 16th, 2013

SHARE

Comments

blog comments powered by Disqus

VERSIONS

ADVERTISEMENT