Alien Ant Farm Tabs

Denigrate

2 versions

TAB

            Denigrate Tab by Alien Ant Farm


SONG: Denigrate
ARTIST: Alien Ant Farm
TABBED BY: Joe Handfield


Riff 1 w/ dist and light flange
E --------------------------------------------------------
B --------------------------------------------------------
G -----3-3-3-2---2----------------------------------------
D --------------------5--5-4-X-X-7--7-X-6-X-6-------------
A -X-X-0-0-0-0-X-0-X--3--5-5-X-X-5--5-X-5-X-5-x-0-x-0-2---
E -X-X-1-1-1-1-X-1-X-------------5--5---5---5-x-1-x-1-3---
       Thumb on E string                            slide

E ----------------------------------------------
B ----------------------------------------------
G -----3-3-3-2---2------------------------------
D -------------------5---5-4--0-0---------------
A -X-X-0-0-0-0-X-0-X-3-X-3-3-------4------------ 
E -X-X-1-1-1-1-X-1-X---X------------------------
                              let strings ring
Main Riff & Chorus:

E ----------------------------------------
B ----------------------------------------
G --3--3-2--------------------------------
D ---------------5-4--0-0-0---------------
A --0--0-0-X--X--3-3--0-4-4--3--5---------
E --1--1-1-X--X--------------1--3---------

Verse(Guitar 1 on high B string notes, Guitar 2 other notes):

E -----------------------------------------0---
B --9-11-11-11-11-11---9-11-11-11-12-12--0---0-
G ---------------------------------------------
D --7-7-7-7-7-7-7-7--7-7-7-7-7-7-7-7-----------
A --5-------4----------------------------------
E -------------------5-------6-----------------
    pick lightly w/ clean tone

Prechorus & chorus:

E ---------|-------------------------------
B ---------|-------------------------------
G --6-6-7--|-------------------------------
D --7-7-8--|--7-7-6-------------0-0--------
A ---------|--5-5-5---4-4-5-----9-7--------
E --5-5-6--|--5-5-5---5-5-6----------------


                     ()- Play these notes on second time
E -------------------------------|
B -------------------------------|
G --7-----9-----11----(13)-------|
D -------------------------------|
A --5-----7-----9-----(11)-------|
E -------------------------------|
    Tremelo pick (rapidly)

Interlude(with variations in rhythm)

E ------------|----------------------------
B ------------|----------------------------
G -XXX-0-0-0--|----------------------------
D -XXX-0-0-0--|-7-7-5-7---7-7-5-7----------
A -XXX-0-0-0--|-7-7-5-7---7-7-5-7----------
E ------------|-5-5-3-5---5-5-3-5----------
Bass plays different chords during interlude but guitar stays the same

End of the song uses the first two riffs    

Added On December 4th, 2013

SHARE

Comments

blog comments powered by Disqus

VERSIONS

ADVERTISEMENT