Alien Ant Farm Tabs

Flesh Bone

1 versions

TAB

            Artist: Alien Ant Farm
Song: Flesh and Bone
Album: Anthology
Tuning: Standard
Tabbed by jhand

This song needed a correct tab. I used some other tab work
but fixed up the parts. Enjoy

Intro
E-0--0--0--0-|-0--0--0--0-|
B-3--3--3--3-|-2--2--2--2-| play
G-4--4--4--4-|-2--2--2--2-| 2x
D------------|------------|
A------------|------------|
E------------|------------|

Verse
E-0--0--0--0-|-0--0--0--0-|-0--0--0--0-|-0---0--0---0--|
B-3--3--3--3-|-2--2--2--2-|-5--5--5--5-|-12--8--12--5--|
G-4--4--4--4-|-2--2--2--2-|-6--6--6--6-|-12--9--12--6--|
D------------|------------|------------|---------------|
A------------|------------|------------|---------------|
E------------|------------|------------|---------------|

E-0--0--0--0-|-0--0--0--0-|-0--0--0--0--|-0-0-0---0-0-0--|
B-3--3--3--3-|-2--2--2--2-|-5--5--5--5--|-8-7-5---5-3-2--|
G-4--4--4--4-|-2--2--2--2-|-6--6--6--6--|-9-7-6---6-4-2--|
D------------|------------|-------------|----------------|
A------------|------------|-------------|----------------|
E------------|------------|-------------|----------------|


CHORUS (strum rhythms indicated)                      16x
e----------------------|---------------------------|------|
B----------------------|---------------------------|------|
G---7----7---7-7-7--7--|---------------------------|------|
D---7----7---7-7-7--7--|--7-7-7-7-7-7-8-8-8-8-8-8--|--1---|
A---5----5---5-5-5--5--|--7-7-7-7-7-7-7-7-7-7-7-7--|--2---|
E---5----5---5-5-5--5--|--5-5-5-5-5-5-6-6-6-6-6-6--|--2---|

                                 16x        8x    8x
e-----------------------------|----------|---------------|
B-----------------------------|----------|---------------|
G---7-7-7--7-7-7--6-6-6-6-6-6-|----------|---------------|
D---7-7-7--7-7-7--6-6-6-6-6-6-|--5-------|--4-----7------|
A---5-5-5--5-5-5--4-4-4-4-4-4-|--5-------|--4-----7------|
E---5-5-5--5-5-5--4-4-4-4-4-4-|--3-------|--2-----5------|

Last 2 barsof Chorus:
Gtr. 2 (clean & loud)
e|----------|---------------|
B|------3---|------2--------|
G|----2-----|----2----------|
D|----------|---------------|
A|----------|---------------|
E|--3-------|--2------------|

2nd Verse is the same, except heavy part before chorus:

E----------------|
B----------------| play
G----------------| 8x
D--7-7/9---------|
A--7-7/9---------|
E--5-5/7---------|

Chorus is the same

Interlude: (2:11)
e---------------------------------------------------------------------------|
B---------------------------------------------------------------------------|
G---------------------------------------------------------------------------|
D--------------------------------------2--4--x-x-x-x-x--2--4-x-x-x-x-x------|
A----5/4-2------2----------------0-4---0--2--x-x-x-x-x--0--2-x-x-x-x-x------|
E------------5------3--2---0-2-3-------0--2--x-x-x-x-x--0--2-x-x-x-x-x------|

e---------------------------------------------------------------------------|
B---------------------------------------------------------------------------|
G--4------------------------------------------------------------------------|
D--4--4---7--2--------------2--4--x-x-x-x-x---2--4--x-x-x-x-x---------------|
A--2--4---7--2--------------0--2--x-x-x-x-x---0--2--x-x-x-x-x---------------|
E-----2---5--0--0-2-3-5-----0--2--x-x-x-x-x---0--2--x-x-x-x-x---------------|

e---------------------------------------------------------------------------|
B---------------------------------------------------------------------------|
G-----------------------------------------------------------------------4---|
D--------------------------------------2--4-x-x-x-x-x--2--4-x-x-x-x-x---4---|
A----5/4-2------2---------------0-4----0--2-x-x-x-x-x--0--2-x-x-x-x-x---2---|
E------------5-----3--2---0-2-3--------0--2-x-x-x-x-x--0--2-x-x-x-x-x-------|

Breakdown-
Harmonics:                Riff 2
e-----------------------|------------------------------|-----------------|
B----5-----------------o|------------------------------|-----------10----|
G------5----------------|--9/11-9-7------9/11-9-7------|-9/11-9-7--------|
D-----------------------|-----------9-------------9----|-----------7-----|
A--------5-------------o|--7/9--7-5------7/9--7-5------|-7/9--7-5--0-----|
E----------5------------|-----------7-------------7----|-----------------|

e-------------|---------------------------|-------------------|
B-------------|---------------------------|-----------10--8~--|
G--9/11-9-7---|--9/11-9-7---9/11-9-7------|-9/11-9-7----------|
D-----------9-|-----------9----------9----|-----------7---6~--|
A--7/9--7-5---|--7/9--7-5---7/9--7-5------|-7/9--7-5--0---0---|
E-----------7-|-----------7----------7----|-------------------|

Verse and Chorus again until end

Key:

/ - slide up neck
\ - slide down
~ - 'shake' note (vibrato)    

Added On December 16th, 2013

SHARE

Comments

blog comments powered by Disqus

ADVERTISEMENT