Alien Ant Farm Tabs

Sleepwalker

1 versions

TAB

            Alien Ant Farm
Sleepwalker
Up in the Attic


Tried my best...but it's the closest that I can get

Tuning:Standard

Intro/verse  strumming not shown
e|-------------------------------------------------------------------------|
B|-------------------------------------------------------------------------|
G|-4---------2---------4---------------------------------------------------|
D|-2---------0---------2---------------------------------------------------|
A|-----------------------------0-------------------------------------------|
E|-------------------------------------------------------------------------|
  --------PM---------------------

First chorus: strumming not shown

  Sleepwalker   I      Feel     Its      Me    And      It  
e|-------------------------------------------------------------------------|
B|-8------------8----------------------------------------------------------|
G|-9------------7------2---------------------------------------------------|
D|-9------------9------4--------5--------4---------------------------------|
A|-0------------0------0--------7--------7------9--------7-----------------|
E|---------------------------------------------10-------10-----------------|


  Sleepwalker   I      Feel     Its      Me    And      haunted  
e|-------------------------------------------------------------------------|
B|-8------------8----------------------------------------------------------|
G|-9------------7------2---------------------------------------------------|
D|-9------------9------4--------5--------4------7---------9----------------|
A|-0------------0------0--------7--------7------7---------x----------------|
E|-------------------------------------------------------10----------------|

  Little part leading to second verse
e|----------0--------------------------------------------------------------|
B|----------0--------------------------------------------------------------|
G|----------9--------------------------------------------------------------|
D|----------9--------------------------------------------------------------|
A|-7-7-7-7--7--------------------------------------------------------------|
E|-0-0-0-0-----------------------------------------------------------------|
  ---PM---
Leading into 2nd chorus...strum
e|-------------------------------------------------------------------------|
B|-3-----------------------------------------------------------------------|
G|-0-----------------------------------------------------------------------|
D|-2-----------------------------------------------------------------------|
A|-0-----------------------------------------------------------------------|
E|-------------------------------------------------------------------------|

2nd Chorus:strumming not shown
note: when muting the strings...don't fulling mute so you can still get the harmonic tone

  Dead   Awake  Always  Be          Right      With
e|-7--x-------x------------------------------------------------------------|
B|-8--x-------x------------------------------------------------------------|
G|-9--x---7---x---------------------------------7--------------------------|
D|-9--x---4---x--5-------5-4-4-4-----5----------4--------------------------|
A|-7--x---5---x--4-------5-5-5-5-----2----------5--------------------------|
E|-7-------------5-------------------3-------------------------------------|

Bridge 
e|------5---4--------------------------------------------------------------|
B|------5---5--------------------------------------------------------------|
G|-9----7---6--------------------------------------------------------------|
D|-9----7---6--------------------------------------------------------------|
A|-7----5---4--------------------------------------------------------------|
E|-------------------------------------------------------------------------|

strumming not shown
e|-------------------------------------------------------------------------|
B|-------------------------------------------------------------------------|
G|---------12---11--9---11--12---------------------------------------------|
D|----------x---x---x---x----x----------repeat-octaves---------------------|
A|-3-3-3---10---9---7---9---10--4-4-4--------------------------------------|
E|-3-3-3------------------------4-4-4--------------------------------------|

End of bridge leading into chorus
e|-------------------------------------------------------------------------|
B|-------------------------------------------------------------------------|
G|-12----14----------------------------------------------------------------|
D|--x-----x----------------------------------------------------------------|
A|-10----12----------------------------------------------------------------|
E|-------------------------------------------------------------------------|    

Added On December 16th, 2013

SHARE

Comments

blog comments powered by Disqus

ADVERTISEMENT