Animal Collective Tabs

Loch Raven

1 versions

TAB

            Artist: Animal Collective
Song: Loch Raven
Album: Feels
Year: 2005

The entire song has three chords: Dm, G7, C played over the following short set of lyrics.

"I will not give up on you.

whooo ooo
ooooo
whooo ooo
ooooo" 

e|--1----------1----------------------------|
B|--3----------0--------------1-------------|
G|--2----------0--------------0-------------|
D|--0----------0--------------2-------------|
A|-------------2--------------3-------------|
E|-------------3----------------------------|
(Dm
Dm
e |-x-|---|---|---|---|
B |---|---|-x-|---|---|
G |---|-x-|---|---|---|
D |---|---|---|---|---|
A |---|---|---|---|---|
E |---|---|---|---|---|
) (G7
G7
e |-x-|---|---|---|---|
B |---|---|---|---|---|
G |---|---|---|---|---|
D |---|---|---|---|---|
A |---|-x-|---|---|---|
E |---|---|-x-|---|---|
) (C
C
e |---|---|-x-|---|---|
B |-x-|---|---|---|---|
G |---|---|---|---|---|
D |---|-x-|---|---|---|
A |---|---|-x-|---|---|
E |---|---|---|---|---|
) Hold the Dm for 1 measure, G7 for 1 measure, and C for 2 measures. Great song and easy enough to play!

Added On December 16th, 2013

SHARE

Comments

blog comments powered by Disqus

ADVERTISEMENT