Animal Collective Tabs

Visiting Friends

1 versions

TAB

            -------------------------------------------------------------------------------
                             VISITING FRIENDS - Animal Collective
-------------------------------------------------------------------------------
Tabbed by: A.J. Conner
Email: ajconner123@gmail.com



  Chord 1 
e|-(0)-----------------|
B|--0------------------|
G|--0------------------|
D|--2------------------|
A|--3------------------|
E|--3------------------|
Strum repeatedly, for as long as you like.

  Chord 2 
e|--0------------------|
B|--0------------------|
G|--2------------------|
D|--3------------------|
A|--0------------------|
E|-(0)-----------------|
Also strum repeatedly.



Thanks and enjoy!



************************************    

Added On December 16th, 2013

SHARE

Comments

blog comments powered by Disqus

ADVERTISEMENT