Anti-Flag Tabs

One Trillion Dollars

7 versions

TAB

            One Trillion Dollars Tab by Anti-flag


Band: Anti-flag
Album: For blood and empire
Song: One trillion dollars

There is no intro on guitar
after a few seconds the guitar comes in on the verse
You strum through the whole song

verse (Play 2 times)
e|----------------------3-3-3-3-3-3-3-3------|
B|---8-8-8-8-8-8-8-8----4-4-4-4-4-4-4-4------|
G|---8-8-8-8-8-8-8-8----5-5-5-5-5-5-5-5------|
D|---8-8-8-8-8-8-8-8----5-5-5-5-5-5-5-5------|
A|---6-6-6-6-6-6-6-6----3-3-3-3-3-3-3-3------|
E|-------------------------------------------|

Chorus (Play 2 times)
e|--1-1-1-1--3--4-4--6-6-----------------------|
B|--1-1-1-1--3--4-4--6-6--8-8-8-8-8-8-8-8------|
G|--2-2-2-2--4--5-5--7-7--8-8-8-8-8-8-8-8------|
D|--3-3-3-3--5--6-6--8-8--8-8-8-8-8-8-8-8------|
A|--3-3-3-3--5--6-6--8-8--6-6-6-6-6-6-6-6------|
E|--1-1-1-1--3--4-4--6-6-----------------------|

verse 2 (Play 2 times)
e|----------------------3-3-3-3-3-3-3-3------|
B|---8-8-8-8-8-8-8-8----4-4-4-4-4-4-4-4------|
G|---8-8-8-8-8-8-8-8----5-5-5-5-5-5-5-5------|
D|---8-8-8-8-8-8-8-8----5-5-5-5-5-5-5-5------|
A|---6-6-6-6-6-6-6-6----3-3-3-3-3-3-3-3------|
E|-------------------------------------------|


Bridge (Play 1 time)
e|-4-4-4-4---------4-4-4-4---------4-4-4-4---------6-6-6-6-6-6-6-6-|
B|-4-4-4-4-8-8-8-8-4-4-4-4-8-8-8-8-4-4-4-4-8-8-8-8-6-6-6-6-6-6-6-6-|
G|-5-5-5-5-8-8-8-8-5-5-5-5-8-8-8-8-5-5-5-5-8-8-8-8-7-7-7-7-7-7-7-7-|
D|-6-6-6-6-8-8-8-8-6-6-6-6-8-8-8-8-6-6-6-6-8-8-8-8-8-8-8-8-8-8-8-8-|
A|-6-6-6-6-6-6-6-6-6-6-6-6-6-6-6-6-6-6-6-6-6-6-6-6-8-8-8-8-8-8-8-8-|
E|-4-4-4-4---------4-4-4-4---------4-4-4-4---------6-6-6-6-6-6-6-6-|

e|-----------------3-3-3-3-3-3-3-3-----------------3-3-3-3-3-3-3-3---|
B|-8-8-8-8-8-8-8-8-4-4-4-4-4-4-4-4-8-8-8-8-8-8-8-8-4-4-4-4-4-4-4-4---|
G|-8-8-8-8-8-8-8-8-5-5-5-5-5-5-5-5-8-8-8-8-8-8-8-8-5-5-5-5-5-5-5-5---|
D|-8-8-8-8-8-8-8-8-5-5-5-5-5-5-5-5-8-8-8-8-8-8-8-8-5-5-5-5-5-5-5-5---|
A|-6-6-6-6-6-6-6-6-3-3-3-3-3-3-3-3-6-6-6-6-6-6-6-6-3-3-3-3-3-3-3-3---|
E|-------------------------------------------------------------------|

outro (Play 3 times)
e|--1-1-1-1--3--4-4--6-6-----------------------|
B|--1-1-1-1--3--4-4--6-6--8-8-8-8-8-8-8-8------|
G|--2-2-2-2--4--5-5--7-7--8-8-8-8-8-8-8-8------|
D|--3-3-3-3--5--6-6--8-8--8-8-8-8-8-8-8-8------|
A|--3-3-3-3--5--6-6--8-8--6-6-6-6-6-6-6-6------|
E|--1-1-1-1--3--4-4--6-6-----------------------|

At the end hit each chord 1 time
e|--1--3--4--6-----------|
B|--1--3--4--6---8-------|
G|--2--4--5--7---8-------|
D|--3--5--6--8---8-------|
A|--3--5--6--8---6-------|
E|--1--3--4--6-----------|    

Added On December 4th, 2013

SHARE

Comments

blog comments powered by Disqus