Anti-Flag Tabs

Sold As Freedom

4 versions

TAB

            Sold As Freedom Tab by Anti-flag


Anti-Flag - "Sold As Freedom" from "The Terror State" LP.
This is an amazing song but pretty easy to play once you get the hang of it.
If you haven't picked up this album I suggest you do. The tabs are all in order
and pretty accurate. Any questions email me at Hojophobic@aol.com. Enjoy!

... - means palm mute where noted.
^ - means bend note
p - means pull off
 
Intro: Justin
E|----------------------------------------------------
B|--9-----9-------------------------------------------
G|----88---88--11p9----(x12)--------------------------
D|----------------------------------------------------
A|----------------------------------------------------
E|----------------------------------------------------
 
Chris - Comes in on the fifth time Justin does the lead intro.
E|----------------------------------------------------
B|----------------------------------------------------
G|-----------4---------------------------------------
D|---6---2---4---4----6-6-6-6-6-6-6-6-6-6-6-6---------(x2)
A|---6---2---2---4----6-6-6-6-6-6-6-6-6-6-6-6---------
E|---4---0-------2----4-4-4-4-4-4-4-4-4-4-4-4---------
                      . .   . .   . .   . . 
 
Verse: Justin does this lead
    "You wanna save the world..."
E|---------------------------------------------------------------
B|---------------------------------------------------------------
G|---------------------------------------------------------------
D|---13-13-13-13-13-13-13-13-13-13-13-13-14-14-14-14--13-13-13~--
A|---------------------------------------------------------------(x2)
E|---11-11-11-11-11-11-11-11-11-11-11-11-12-12-12-12--11-11-11~--
 
          Justins lead (cont.)
E|---------------------------------------------------------------
B|---------------------------------------------------------------
G|---------------------------------------------------------------
D|---13---11---9---11---8----------9---8---11---16---13----------
A|----------------------------------------------------------(pick slide)
E|---11---9----7----9---6----------7---6----9---14---11--------
 
Chorus: Both Justin & chris play.
   "Fight fire..."
E|--------------------------------------------------------
B|--------------------------------------------------------
G|---9----8----6----4-------------------------------------
D|---9----8----6----4----6-6-6-6-6-6-6-6-6-6-6-6-6-6-6-6--(x3)
A|---7----6----4----2----6-6-6-6-6-6-6-6-6-6-6-6-6-6-6-6--
E|-----------------------4-4-4-4-4-4-4-4-4-4-4-4-4-4-4-4--
 
Chorus (cont.)
E|----------------------------------------------------------------------
B|----------------------------------------------------------------------
G|---4-4-4-4-4-4-4-4-4-4-4-4-4-4-4-4---8-8-8-8-8-8-8-8-8-8-8-8-8-8-8-8--
D|---4-4-4-4-4-4-4-4-4-4-4-4-4-4-4-4---8-8-8-8-8-8-8-8-8-8-8-8-8-8-8-8--
A|---2-2-2-2-2-2-2-2-2-2-2-2-2-2-2-2---6-6-6-6-6-6-6-6-6-6-6-6-6-6-6-6--
E|----------------------------------------------------------------------

**In the chorus when Chris plays the B power chord (244), justin plays a lead
which is hard to hear at first but trust me its there, and it should go like this:
 
E|--------------------                                                
B|---4^-4p2p0---------
G|--------------------  
D|--------------------
A|--------------------
E|--------------------
 
It's played real fast and together it should look something like this:
E|-----------------------------------------------------
B|---4^-4p2p0-(Justin)---------------------------------
G|---4-------------------------------------------------
D|---4-(Chris)-------6-6-6-6-6-6-6-6-6-6-6-6-6-6-6-6-6-
A|---2---------------6-6-6-6-6-6-6-6-6-6-6-6-6-6-6-6-6-
E|-------------------4-4-4-4-4-4-4-4-4-4-4-4-4-4-4-4-4-

Verse again.
 "To end terror..."

Chorus again.
 "Fight Fire..."
 
Bridge: Part 1
   "Join now..."
E|--------------------------------------------------------
B|--------------------------------------------------------
G|--------------------------------------------------------
D|----------------------------------------6---------------
A|--7-6------6------7-6-----4-----7-6-----4-----7-6-9-----
E|--------7--4-----------7--2----------7------------------

Bridge: Part 2
   "Salute..."
E|--------------------------------------------------------
B|--------------------------------------------------------
G|--------------------------------------------------------
D|--------------------------------------------------------
A|--7-6------6------7-6------4-----7-6---9----------------
E|--------7--4------------7--2---------7------------------

Bridge: Part 3
   "Hut-2-3-4..."
E|--------------------------------------------------------
B|--------------------------------------------------------
G|--------------------------------------------------------
D|--6-6-6-6--2-2-2-2---6-6-6-6---4-4-4-4----(x2)----------
A|--6-6-6-6--2-2-2-2---6-6-6-6---4-4-4-4------------------
E|--4-4-4-4--0-0-0-0---4-4-4-4---2-2-2-2------------------

Bridge: Part 4
   "It's up to you...."
E|--------------------------------------------------------
B|--------------------------------------------------------
G|--------------------------------------------------------
D|--6-6-6-6--2-2-2-2---6-6-6-6---4-4-4-4------------------
A|--6-6-6-6--2-2-2-2---6-6-6-6---4-4-4-4------------------
E|--4-4-4-4--0-0-0-0---4-4-4-4---2-2-2-2------------------
    . . . .  . . . .   . . . .   . . . .

Intro:
 Justin's part(x15)
 Chris's part (x4)
"What this world..."

Ends on:

E|------------
B|------------
G|------------
D|--6---------
A|--6---------
E|--4---------

- Tabbed by Hojo.    

Added On December 4th, 2013

SHARE

Comments

blog comments powered by Disqus

VERSIONS

ADVERTISEMENT