Arch Enemy Tabs

Web Of Lies

2 versions

TAB

            Band: Arch Enemy
Album: Wages of Sin 
Song: Web of Lies

Tunning
Two whole steps down (CGCFAD)

Intro

D|--------------------------------||--------------------------------|
A|--------------------------------||--------------------------------|
F|--------------------------------||--------------------------------|
C|--------------------------------||--------------------------------|
G|2-2-5-5-4-4-2-2-4-4-2-2-4-4-5-5-||1-1-5-5-4-4-1-1-4-4-1-1-4-4-5-5-|
C|--------------------------------||--------------------------------|
 P.m................................................................|

D|--------------------------------||--------------------------------|
A|--------------------------------||--------------------------------|
F|--------------------------------||--------------------------------|
C|--------------------------------||--------------------------------|
G|0-0-5-5-4-4-0-0-4-4-0-0-4-4-5-5-||---5---------3------------------|
C|--------------------------------||---3---------1------------------|
P.m...............................|

Verse
D|--------------------------------||--------------------------------|
A|--------------------------------||--------------------------------|
F|--------------------------------||--------------------------------|
C|--------------------------------||--------------------------------|
G|2-2-5-5-4-4-2-2-4-4-2-2-4-4-5-5-||1-1-5-5-4-4-1-1-4-4-1-1-4-4-5-5-|
C|--------------------------------||--------------------------------|
 P.m................................................................|
D|--------------------------------||--------------------------------|
A|--------------------------------||--------------------------------|
F|--------------------------------||--------------------------------|
C|--------------------------------||--------------------------------|
G|0-0-5-5-4-4-0-0-4-4-0-0-4-4-5-5-||--------------------------------|
C|--------------------------------||3-3-3-3-3-3-3-3-1-1-1-1-1-1-1-1-|
 P.m................................................................|

PreChorus
D|--------------------------------||--------------------------------|
A|--------------------------------||--------------------------------|
F|---5-4---4---5----5-4---4---5---||--5-4---4---5----5-4---4---5--/9|
C|-------7--------------7--------6||------7--------------7----------|
G|--------------------------------||--------------------------------|
C|--------------------------------||--------------------------------|

D|--------------------------------||--------------------------------|
A|--------------------------------||-----/10--8-----8----10--9------|
F|---/9--7--5--7------9~----------||-------------9------------------|
C|--------------------------------||--------------------------------|
G|--------------------------------||--------------------------------|
C|--------------------------------||--------------------------------|

D|--------------------------------||--------------------------------|
A|--------------------------------||--------------------------------|
F|----4--------4--------4-------4-||----3--------3--------3-------3-|
C|--------------------------------||--------------------------------|
G|--------------------------------||--------------------------------|
C|2-2----2-2-2----2-2-2---2-2-2--2||2-2----2-2-2----2-2-2---2-2-2--2|


Chorus                             x2                                x2
D|----------------------------------||--------------------------------|
A|----------------------------------||--------------------------------|
F|----9--9--9--9--9--9--9--9--------||---8--8--8--8--8--8--8--8-------|
C|----9--9--9--9--9--9--9--9--------||---9--9--9--9--9--9--9--9-------|
G|----7--7--7--7--7--7--7--7--------||---6--6--6--6--6--6--6--6-------|
C|----------------------------------||--------------------------------|

D|----------------------------------||--------------------------------|
A|----------------------------------||--------------------------------|
F|----------------7-----------------||--------------------------------|
C|----7-----------7-----------------||-2------------------------------|
G|----7-----------5-----------------||-2------------------------------|
C|----5-----------------------------||-0--0-0-0-0-0-0-0-0-0-0-2^^-----|
                                         P.m.................
                                    x2                                x2
D|----------------------------------||--------------------------------|
A|----------------------------------||--------------------------------|
F|---12--12--12--12--12--12--12--12-||---11-11-11-11-11-11-11-11------|
C|---12--12--12--12--12--12--12--12-||---12-12-12-12-12-12-12-12------|
G|---10--10--10--10--10--10--10--10-||----9--9--9--9--9--9--9--9------|
C|----------------------------------||--------------------------------|

D|----------------------------------|
A|----------------------------------|
F|----------------------------------|
C|---5~-----7~-----7~-----9~--------|
G|---3~-----4~-----5~-----6~--------|
C|----------------------------------|


I will get the solo up soon.
Don't quite have it.

Chorus (this time a little different)

D|----------------------------------||----------------------------------|
A|----------------------------------||----------------------------------|
F|----9--9--9--9--9--9--9--9--------||----9--9--9--9--9--9--9--9--------|
C|----9--9--9--9--9--9--9--9--------||----9--9--9--9--9--9--9--9--------|
G|----7--7--7--7--7--7--7--7--------||----7--7--7--7--7--7--7--7--------|
C|----------------------------------||----------------------------------|

D|----------------------------------||----------------------------------|
A|----------------------------------||----------------------------------|
F|---11-11-11-11-11-11-11-11--------||---8--8--8--8--8--8--8--8---------|
C|----9--9--9--9--9--9--9--9--------||---9--9--9--9--9--9--9--9---------|
G|----9--9--9--9--9--9--9--9--------||---6--6--6--6--6--6--6--6---------|
C|----------------------------------||----------------------------------|

D|----------------------------------||--------------------------------|
A|----------------------------------||--------------------------------|
F|----------------7-----------------||--------------------------------|
C|----7-----------7-----------------||-2------------------------------|
G|----7-----------5-----------------||-2------------------------------|
C|----5-----------------------------||-0--0-0-0-0-0-0-0-0-0-0-2^^-----|
                                         P.m.................

                                    x2                                x2
D|----------------------------------||--------------------------------|
A|----------------------------------||--------------------------------|
F|---12--12--12--12--12--12--12--12-||---11-11-11-11-11-11-11-11------|
C|---12--12--12--12--12--12--12--12-||---12-12-12-12-12-12-12-12------|
G|---10--10--10--10--10--10--10--10-||----9--9--9--9--9--9--9--9------|
C|----------------------------------||--------------------------------|

D|----------------------------------|
A|----------------------------------|
F|----------------------------------|
C|---5~-----7~-----7~-----9~--------|
G|---3~-----4~-----5~-----6~--------|
C|----------------------------------|

Outro
                                 x2                                x2
D|--------------------------------||--------------------------------|
A|--8--8--------8--8--------------||--8--8--------8--8--------------|
F|--------9--9--------9--9--------||--------8--8--------8--8--------|
C|--------------------------------||--------------------------------|
G|--------------------------------||--------------------------------|
C|--------------------------------||--------------------------------|

D|--------------------------------||--------------------------------|
A|--------------------------------||--10--10------------------------|
F|-------------------------9--9---||----------11--11----------------|
C|-----------------10--10---------||------------------12--12--------|
G|-12--12--12--12-----------------||--------------------------12--12|
C|--------------------------------||--------------------------------|

D|--------------------------------|
A|--------------------------------|
F|--------------------------------|
C|-2------------------------------|
G|-2------------------------------|
C|-0--0-0-0-0-0-0-0-0-0-0-2^^-----|
    P.m.................
                                 x2                                x2
D|--------------------------------||--------------------------------|
A|--8--8--------8--8--------------||--7--7--------7--7--------------|
F|--------7--7--------7--7--------||--------7--7--------7--7--------|
C|--------------------------------||--------------------------------|
G|--------------------------------||--------------------------------|
C|--------------------------------||--------------------------------|

D|--------------------------------|
A|--------------------------------|
F|--------------------------------|
C|--5----7----7----9----9\--------|
G|--3----4----5----6----7\--------|
C|--------------------------------|    

Added On December 16th, 2013

SHARE

Comments

blog comments powered by Disqus

VERSIONS

ADVERTISEMENT