Army Of Anyone Tabs

Goodbye

4 versions

TAB

            Goodbye Tab by Army Of Anyone


#----------------------------------PLEASE NOTE--------------------------------#
#This file is the author's own work and represents their interpretation of the#
#song. You may only use this file for private study, scholarship, or research.#
#-----------------------------------------------------------------------------#
#-- File created with Instab - http://www.pconline.com/~smcarey/instab.html --#
#-----------------------------------------------------------------------------#

Author/Artist: Army Of Anyone
Title: Goodbye
Album: Army Of Anyone
Transcribed by: Saverain
b bend
r  release bend
h hammer on
p pull off
/ slide up
\ slide down
d strum down
u strum up

http://www.geocities.com/tabevolution

Tuning: Open G (D G D G B D)

------|-------|--|-------|-------|--|--------|--------------------------------|
------|-------|--|-------|-------|--|--------|--------------------------------|
------|-2-0-0-|--|-2-0-0-|-2-0-0-|--|-2-0-2\-|--------------------------------|
------|-2-0-0-|3x|-2-0-0-|-2-0-0-|3x|-2-0-2\-|--------------------------------|
------|-2-0-0-|--|-2-0-0-|-2-0-0-|--|-2-0-2\-|--------------------------------|
------|-------|--|---------------------------|--------------------------------|


------|-------------------------------------------------------------|---------|
------|-------------------------------------------------------------|---------|
------|-------------------------------------------------------------|---------|
------|-------------------------------------------------------------|---------|
------|-----2/5-2/7-6-6-6-6-------------2/5-2/7-6-6-6-6/12-12-12-12-|---------|
------|-2-5-----------------5-5-5-5-2-5-----------------------------|---------|


------|----------------------------------------------------|-------------|---|
------|----------------------------------------------------|-------------|---|
------|----------------------------------------------------|-------------|---|
------|----------------------------------------------------|-------------|4x-|
------|-----2/5-2/7-6-6-6-6-------------2/5-2/7-6-6-6-6-6/-|-12-12-12-12-|---|
------|-2-5-----------------5-5-5-5-2-5--------------------|-------------|---|


------|------------------------------------------------------------------|----|
------|------------------------------------------------------------------|----|
------|---------------9-/12-12-12-12-12-12\---------------4/7-7-7-7-7-7\-|----|
------|---------------x--x--x--x--x--x--x-----------------4/7-7-7-7-7-7\-|----|
------|-7/9-9-9-7-5---9-/12-12-12-12-12-12\-7/9-9-9-7-5---4/7-7-7-7-7-7\-|----|
------|-------------7-----------------------------------7----------------|----|


------|------------------------------------------------|----------------------|
------|------------------------------------------------|----------------------|
------|---------------4/7-7-7-7-7-7-7-7-7-7-7-7-7-7-7\-|----------------------|
------|---------------4/7-7-7-7-7-7-7-7-7-7-7-7-7-7-7\-|----------------------|
------|-7/9-9-9-7-5---4/7-7-7-7-7-7-7-7-7-7-7-7-7-7-7\-|----------------------|
------|-------------7----------------------------------|----------------------|


------|-----------------------------------------------------------------------|
------|-------0-----------0-0-----------0-----------0-0-----------------------|
------|-----------------------------------------------------------2-----------|
------|-6--7----2-2-6--7------2-2-5--7----2-2-5--7------2-2-4--5----4-4-4--5--|
------|-----------------------------------------------------------------------|
------|-----------------------------------------------------------------------|
   Chorus

---------------------|--------------|--------------------|--------------------|
---------------------|--------------|--------------------|--------------------|
-2-2-----------2-----|------2-2-----|------2-2---2---2---|--------------------|
-----4-4-2--5----2-2-|-2--5-----2-2-|-2--5-----2---2-2---|--------------------|
---------------------|--------------|--------------------|--------------------|
---------------------|--------------|--------------------|--------------------|
                           end        last end

------|-------|--|--------|-------|-------|-------|--|-----------|------------|
------|-------|--|--------|-------|-------|-------|--|-----------|------------|
------|-2-0-0-|--|-2-0-2\-|-------|-------|-2-0-0-|--|-2-0-2-0-0-|------------|
------|-2-0-0-|4x|-2-0-2\-|-------|-------|-2-0-0-|3x|-2-0-2-0-0-|------------|
------|-2-0-0-|--|-2-0-2\-|-------|-------|-2-0-0-|--|-2-0-2-0-0-|------------|
------|-------|--|--------|-------|-------|-------|--|-----------|------------|
                            Verse   Chorus

-------|-------------------------12--11--9-7-7h9-------6----------------------|
-------|-7b9r7--7b8r7b8r7--8b10-----------------------------------------------|
-------|------------------------------------------7b8----6b7r6-4-2-3b4r3------|
-------|-----------------------------------------------------------------5vv--|
-------|----------------------------------------------------------------------|
-------|----------------------------------------------------------------------|


------------------------------------------------------------------------11-14-|
----------------------------------------------------------------7/10-12-------|
-----------------------------------4-6-6b7r6-6v-4-2--3b4r3b4r3----------------|
-4-6p4-4-7p4-4-6p4-4-7p4-4-8p4-6-4--------------------------------------------|
------------------------------------------------------------------------------|
------------------------------------------------------------------------------|


-13b14--14--14--14--r13-------------------------------------------------------|
------------------------12-12vv--12-14-14b15r14-14vv-12-10-11b12r11b12r11-----|
------------------------------------------------------------------------------|
------------------------------------------------------------------------------|
------------------------------------------------------------------------------|
------------------------------------------------------------------------------|


----------------------|-------------------------------------------------------|
----------------------|-------------------------------------------------------|
-6br-4-2v--4br-2------|-------------------------------------------------------|
-----------------5vv\-|-------------------------------------------------------|
----------------------|-------------------------------------------------------|
----------------------|-------------------------------------------------------|


-----|------------------------------------------------------14b15---15--15----|
-----|-11b12r11b12--10-12-14b15r14vvv-14b15r14--10--12b13---------------------|
-----|------------------------------------------------------------------------|
-----|------------------------------------------------------------------------|
-----|------------------------------------------------------------------------|
-----|------------------------------------------------------------------------|


-15-15-15--r14--15-12---------------------------------------------------------|
----------------------11-8----------------------------------------------------|
----------------------------9--------2b3r2b4--2-4-6b7r6-6b7r6--4-3b4------r4--|
-------------------------------11p8-------------------------------------------|
------------------------------------------------------------------------------|
------------------------------------------------------------------------------|


------------------------------------------|-----------------------------------|
-----------------------9b10r9-------------|-----------------------------------|
--2b3r2-2-4-6vv-8b9r8---------------------|-----------------------------------|
------------------------------------------|-----------------------------------|
------------------------------------------|-----------------------------------|
---------------------------------------2--|-----------------------------------|
                          Not shure... End    

Added On December 4th, 2013

SHARE

Comments

blog comments powered by Disqus

VERSIONS

ADVERTISEMENT