Asaf Avidan Tabs

Different Pulses

1 versions

TAB

            the acoustic version:
http://youtu.be/u7icUlqvLf8?hd=1
found it by hearing.
capo 5 fret

Am

E-----------------|
B-1--3--1---------|
G-2--2--2---------|
D-2--2--2---------|
A-----------------|
E-----------------|

F
E-1----1---1------|
B-1----3---1------|
G-2----2---2------|
D-3----1---3------|
A-3----3---3------|
E-1----1---1------|
that's it, keep playing these two chords.    

Added On December 16th, 2013

SHARE

Comments

blog comments powered by Disqus

ADVERTISEMENT