Asking Alexandria Tabs

Welcome

1 versions

TAB

            I noticed that there were no tabs for this song, and I'd tabbed it out
recently, so I figured I could help some people out and post it up here.

Feel free to rate and comment!

=============================================================================
Drop C
Guitar I - 'Ben'
Guitar II - 'Cameron'
=============================================================================

Guitar I & II
D|----------------------------------------|
A|----------------------------------------|
F|----------------------------------------|
C|----------0-----------------------0-----|
G|-0000-0-0-0--0-000--0-000-000-0-0-0-0---|
C|-0000-0-0-0--0-000--0-000-000-0-0-0-0-0-|
   .... . .    . ...  . ... ... . .   .

D|-------------------------------------|
A|-------------------------------------|
F|-------------------------------------|
C|------------------0------------------|
G|-000-000-0000-0-0-0-0-00000-0000-000-|
C|-000-000-0000-0-0-0-0-00000-0000-000-|
   ... ... .... . .   . ..... .... ...

Guitar I & II
D|----------------------------------------|
A|----------------------------------------|
F|----------------------------------------|
C|----------0-----------------------0-----|
G|-0000-0-0-0--0-000--0-000-000-0-0-0-0---|
C|-0000-0-0-0--0-000--0-000-000-0-0-0-0-0-|
   .... . .    . ...  . ... ... . .   .

D|-------------------------------------|
A|-------------------------------------|
F|-------------------------------------|
C|------------------0------------------|
G|-000-000-0000-0-0-0-0-00000-0000-000-|
C|-000-000-0000-0-0-0-0-00000-0000-000-|
   ... ... .... . .   . ..... .... ...    

Added On December 16th, 2013

SHARE

Comments

blog comments powered by Disqus

ADVERTISEMENT